save to print version add songbook text version e-mail correct tuner
chordsukulelecavacokeyboardtabbassdrumsharmonicaflute Guitar Pro
close

there isn't a video lesson for this song

chords

Crash

	  		

********** GTR 1 INTRO *********** 

(strum with alternate picking between the chord notes) 
e-----------------|------------------|------------------|------------------| 
b-----------------|------------------|------------------|------------------| 
g-----------------|------------------|------------------|------------------| 
D-7---------------|-7-----------9----|-4----------------|-4----------------| 
A-5---------------|-5-----------5----|-2----------------|-2----------------| 
E-----------------|------------------|------------------|------------------| 

e-----------------|------------------|------------------|------------------| 
b-----------------|------------------|------------------|------------------| 
g-----------------|------------------|------------------|------------------| 
D-7---------------|-7-----------9----|-2----------------|-2-----------4----| 
A-5---------------|-5-----------5----|-0----------------|-0-----------0----| 
E-----------------|------------------|------------------|------------------| 

e-----------------|------------------|------------------|------------------| 
b-----------------|------------------|------------------|------------------| 
g-----------------|------------------|------------------|------------------| 
D-----------------|------------------|------------------|-0----------------| 
A-5---------------|-5------------5---|-2------------2/7-|-7----------------| 
E-3---------------|-3------------5---|-0------------0---|-0----------------| 

e---------0--------|---------0--------|- 
b-0--0------0------|-0--0-------------|- 
g-4--4----------4--|-4--4--4----------|- 
D-4--4--4-----4----|-4--4--4----------|- 
A-2--2--2----------|-2--2--2----------|- 
E------------------|------------------|- 


********** GTR 2 INTRO *********** 

(reverse delay effect) 
e--------------------------------|------------------------------| 
b------------12-----------12--12-|------------12-----------12---| 
g-14---14--14-----14-14-----14---|-14---14--14----14-14--14--14-| 
D--------------------------------|------------------------------| 
A--------------------------------|------------------------------| 
E--------------------------------|------------------------------| 
e--------------------------------|------------------------------| 
b-15--14-------------12-----12---|-15--14-------------12--------| 
g---------14---14-14------14--14-|---------14---14-14----14-----| 
D--------------------------------|------------------------------| 
A--------------------------------|------------------------------| 
E--------------------------------|------------------------------| 

e--------------------------------|------------------------------| 
b------------12-----------12--12-|------------12-----------12---| 
g-14---14--14-----14-14-----14---|-14---14--14----14-14--14--14-| 
D--------------------------------|------------------------------| 
A--------------------------------|------------------------------| 
E--------------------------------|------------------------------| 

e--------------------------------|------------------------------| 
b-15--14-------------12-----12---|-15--14-------------12---12---| 
g---------14---14-14------14--14-|---------14---14-14----14--14-| 
D--------------------------------|------------------------------|    
A--------------------------------|------------------------------| x repeat 3 times 
E--------------------------------|------------------------------| 

e-------------12-----------------|---------------12------------| 
b----12---12------12------12--12-|-----12----12----------------| 
g-14----14--14--------14----14---|-14------14--14--------------| 
D--------------------------------|-----------------------------| 
A--------------------------------|-----------------------------| 
E--------------------------------|-----------------------------| 


*********** BRIDGE-1  *********** 
GTR 1 
e-0---------------|------------------|-------------------|------------------| 
b-3------------3/5|-5------------5/10|-10------------12/7|-7-------^7--7----| 
g-2---------------|------------------|-------------------|------------------| 
D-0---------------|------------------|-------------------|------------------| 
A-----------------|------------------|-------------------|------------------| 
E-----------------|------------------|-------------------|------------------| 

GTR 2 
e-----------------|------------------| 
b-----------------|------------------| 
g-7-----------9---|-7-----------11---| 
D-x-----------x---|-x-----------x----| 
A-5-----------7---|-5-----------9----| 
E-----------------|------------------| 

e-----------------|------------------| 
b-----------------|------------------| 
g-4-----------6---|-4-----------6----| 
D-x-----------x---|-x-----------x----| 
A-2-----------4---|-2-----------4----| 
E-----------------|------------------| 


*********** VERSE *********** 
GTR 1 
e-----------------------0---------|-----------------------0---------| 
b-----2-----3---2-----2-----3-2---|-----2-----3---2-----2-----2---2-| 
g---2-----2---------2-----------2-|---2-----2---------2---------2---| 
D-0-----0-----0---0-------0-------|-0-----0-----0---0-------0-------| 
A---------------------------------|---------------------------------| 
E---------------------------------|---------------------------------| 

e-----------------------0---------|---------------------------------| 
b-----2-----3---2-----2-----3-2---|-----2-----3---2---2---0---------| 
g---2-----2---------2-----------2-|---2-----2-----------2-----2---2-| 
D---------------------------------|---------------------------------| 
A-2-----2-----2---2-------2-------|-2-----2-----2---2-------2---2---| 
E---------------------------------|---------------------------------| 

e-----------------------0---------|-----------------------0---------| 
b-----2-----3---2-----2-----3-2---|-----2-----3---2-----2-----2---2-| 
g---2-----2---------2-----------2-|---2-----2---------2---------2---| 
D-0-----0-----0---0-------0-------|-0-----0-----0---0-------0-------| 
A---------------------------------|---------------------------------| 
E---------------------------------|---------------------------------| 

e-----------------------0---------|---------------------------------| 
b-----2-----3---2-----2-----3-2---|-----2-----2---2h3---3-----3---3-| 
g---2-----2---------2-----------2-|---2-----2---------------2-------| 
D---------------------------------|---------------------------------| 
A-2-----2-----2---2-------2-------|-2-----2-----2-----2---2-----2---| 
E---------------------------------|---------------------------------| 


GTR 2 (heavy sustain to ring out notes) 
e-----------------|------------------|-----------------|------------------| 
b-----------------|------------------|-----------------|------------------| 
g-7---------------|------------------|-----------------|------------------| 
D-x---------------|------------------|-----------------|------------------| 
A-5---------------|-5-------------5/-|-/2--------------|-/2------------2/-|  
E-----------------|------------------|-----------------|------------------| 


3rd guitar line using e-bow: 
e--------------------|--------------------|-----------------|------------------| 
b--------------------|--------------------|-----------------|------------------| 
g-7--9---11-12-11-9--|-7--9---11-12-11-9--|-7---------------|-6-------4--------| 
D--------------------|--------------------|-----------------|------------------| 
A--------------------|--------------------|-----------------|------------------| 
E--------------------|--------------------|-----------------|------------------| 

e--------------------|--------------------|-----------------|------------------| 
b--------------------|--------------------|-----------------|------------------| 
g-7--9---11-12-11-9--|-7--9---11-12-11-9--|-7-------6-------|-4----------------| 
D--------------------|--------------------|-----------------|------------------| 
A--------------------|--------------------|-----------------|------------------| 
E--------------------|--------------------|-----------------|------------------| 


*************************** 
****** REPEAT BRIDGE ****** 
*************************** 


****** GTR 2 - from start of middle breakdown section to end ****** 

(long sustain notes) 
e--------|-------|-------|--------|-------|-------------|----------|----------| 
b--------|-------|-------|--------|-------|-------------|----------|----------| 
g--------|-------|-------|--------|-------|-------------|----------|----------| 
D--------|-------|-------|--------|-------|-------------|----------|----------| 
A-5------|-----5/|-2----0|-2----2/|-5----5/7--5--4--5--5/7---------|----7-/9--| 
E--------|-------|-------|--------|-------|-------------|----------|----------| 

e---------|----------|---------|-----------| 
b---------|----------|---------|-----------| 
g---------|----------|---------|-----------| 
D---------|----------|---------|---------2-| 
A-5-------|-5--------|-2-----2/|-7-------0-| 
E-3-------|-3--------|-0-----0-|-0---------| 

chords to strum 
e----------|-------------|------------|------------| 
b----------|-------------|------------|------------| 
g-4--------|-7--------6--|-6------6^--|-9-------9--| 
D-4--------|-7--------7--|-7------7---|-9-------9--| 
A-2--------|-5--------5--|-7------7---|-7-------0--| repeated multiple time to the end 
E----------|-------------|-5------5---|-0-------x--| 
                               (bend g6) 

closing chords 
(single strokes and ring out) 
e-0--------|-0-----------|-0----------|-0----0--------|--- 
b-0--------|-0-----------|-0----------|-0------0---0-0|-0- 
g-4--------|-4-----------|-4----------|-2--------2--2-|-4- 
D-4--------|-x-----------|-2----------|-2-------------|-4- 
A-2--------|-2-----------|-2----------|-0-------------|-2- 
E----------|-3-----------|-0----------|-0-------------|--- 


****** GTR 1 - from start of middle breakdown section to end ****** 
e------------------------------------|----------------------------------------| 
b-12-x-x-x-x-x-x-x----x-x-x----x-x-x-|-10-x-x-x-x-x-x-x-14-x-x-10----10-10-10-| 
g------------------------------------|----------------------------------------| 
D------------------------------------|----------------------------------------| x 7 
A------------------------------------|----------------------------------------| 
E------------------------------------|----------------------------------------| 

e------------------------------------|-----------------------------------| 
b-12-x-x-x-x-x-x-x----x-x-x----x-x-x-|-14-x-x-x-x-x-x-x-15-x-x-x-x-x-x-x-| 
g------------------------------------|-----------------------------------| 
D------------------------------------|-----------------------------------| 
A------------------------------------|-----------------------------------| 
E------------------------------------|-----------------------------------| 

(fast picking) 
e------------------------------------|----------------------------------------| 
b-17.................................|-19..................14................-| 
g------------------------------------|----------------------------------------| 
D------------------------------------|----------------------------------------| x 3 
A------------------------------------|----------------------------------------| 
E------------------------------------|----------------------------------------| 

e-17.................................|-19..................21................-| 
b------------------------------------|----------------------------------------| 
g------------------------------------|----------------------------------------| 
D------------------------------------|----------------------------------------| 
A------------------------------------|----------------------------------------| 
E------------------------------------|----------------------------------------| 

e-12------12------12------12------------------| 
b----12------12------12------12---10h12-12-12-| 
g---------------------------------------------| 
D---------------------------------------------| x repeat 7 times 
A---------------------------------------------| 
E---------------------------------------------| 


e-------------------------------------------------| 
b-10-10-10-10-10-10-10-10-14-14-14-10----10-10-10-| 
g-------------------------------------------------| 
D-------------------------------------------------| 
A-------------------------------------------------| 
E-------------------------------------------------| 

e-12---12----10---10-9---10-9---------9----| 
b---------10------------------10---10---10-| 
g------------------------------------------| 
D------------------------------------------| x repeat 3 times 
A------------------------------------------| 
E------------------------------------------| 

e-12---12----10---10-9---10-9-10---9-----9--| 
b---------10--------------------------10----| 
g-------------------------------------------| 
D-------------------------------------------| 
A-------------------------------------------| 
E-------------------------------------------| 





******** SEE YOU ON THE OTHER SIDE ************ 

(finger plucking on acoustic guitar) 
e---------------------------------|---------------------------------| 
b---------------------------------|---------------------------------| 
g-----4-----4---4/----6-----6---6-|-----7-----7---7-----6-----6---6-| 
D---4-----4---------4-----4-------|---4-----4---------4-----4-------| 
A-0-----0-----0---0-----0-----0---|-0-----0-----0---0-----0-----0---| 
E---------------------------------|---------------------------------|          

e---------------------------------|---------------------------------| 
b---------------------------------|---------------------------------| 
g-----4-----2---4-----4-----4---4-|-----4-----2---4-----4-----4---4-| 
D---4-----4---------4-----4-------|---4-----4---------4-----4-------| 
A-2-----2-----2---2-----2-----2---|-2-----2-----2---2-----2-----2---| 
E---------------------------------|---------------------------------|          

e---------------------------------|---------------------------------| 
b---------------------------------|---------------------------------| 
g-----4-----4---4-----6-----6---6-|-----7-----7---7-----6---7-6---6-| 
D---4-----4---------4-----4-------|---4-----4---------4---4-----4---| 
A-0-----0-----0---0-----0-----0---|-0-----0-----0---0---------------| 
E---------------------------------|---------------------------------|          

e------------0---------------------|----------0---------------------| 
b---------------0-----------------|---------------0-----------------| 
g-----4---------------4-----4---4-|-----4---------------4-----4---4-| 
D---4-----4---------4-----4-------|---4-----4---------4-----4-------| 
A-2-----2-----2---2-----2-----2---|-2-----2-----2---2-----2-----2---| 
E---------------------------------|---------------------------------|          

***** then repeat next set of bars to the end ****** 
e---------------------------------|---------------------------------| 
b---------------------------------|-----------------3---------------| 
g-----4-----4---4-----4-----4---2-|-----2-----2-------2---2-----2h4-| 
D---4-----4---------4-----4-------|---4-----4-----4-----4-----4-----| 
A---------------------------------|-0-----0-----0-----------0-------| 
E-3-----3-----3---3-----3-----3---|---------------------------------|          

e---------------------------------|---------------------------------| 
b---------------------------------|---------------------------------| 
g-----4-----2---4-----4-----4---4-|-----4-----2---4-----4-----4---4-| 
D---4-----4---------4-----4-------|---4-----4---------4-----4-------| 
A-2-----2-----2---2-----2-----2---|-2-----2-----2---2-----2-----2---| 
E---------------------------------|---------------------------------| 
		  

auto scroll beats size up size down change color hide chords drawings
tab show chords e-chords YouTube Clip e-chords hide all tabs e-chords go to top tab

share