Busted

Without You

Busted

tabs

by  SPOOKYZOMBIE

save to print version add songbook text version e-mail correct tuner
chordsukulelecavacokeyboardtabbassdrumsharmonicaflute Guitar Pro
close

there isn't a video lesson for this song

chords

Without You

Year: 2002 - Album: Busted [2002]

	  		WITHOUT YOU 
 
(*)=palm mute 
(~)=let it ring 
(X)=muted strings 
(H)=hammer on 
(P)=pull off 
(/)=slide 
 
intro: 
 
e----------------------------------------------------------------| 
b----------------------------------------------------------------| 
g--------0------------0------------0-----0---------0-------------| 
d-----5-----3------5-----3------------------7---------9-----10---| x4 
a--3------------5------------8--8-----8---------8--------8-------| 
E----------------------------------------------------------------| 
 
verse 1: 
 
e---------------------------------------------| 
b---------------------------------------------| 
g--------0--------------0-------------0-------| 
d-----5-----5--------7-----7------10-----10---| 
a--3--------------5------------8--------------| 
E---------------------------------------------| 
 
e-------------------------------------------| 
b-------------------------------------------| 
g---------0-------------0------------0------| 
d-----10-----10------5-----5------7-----7---| 
a--8--------------3------------5------------| 
E-------------------------------------------| 
 
e---------------------------------------------| 
b---------------------------------------------| 
g---------0--------------0-------------0------| 
d-----10-----10------10-----10------5-----5---| 
a--8--------------8--------------3------------| 
E---------------------------------------------| 
 
e---------------------------------------------| 
b---------------------------------------------| 
g--------0-------------0--------------0-------| 
d-----7-----7------10-----10------10-----10---| 
a--5------------8--------------8--------------| 
E---------------------------------------------| 
 
e--------------------------------------------------------| 
b--------------------------------------------------------| 
g--------0-----------0------------0--------------0-------| 
d-----5-----5-----7-----7-----10-----10------10-----10---| 
a--3-----------5-----------8--------------8--------------| 
E--------------------------------------------------------| 
 
pre Chorus: 
 
e--------------------------------------------------------------| 
b--0-0-0-0-0-0-0-0-0-------------------------------------------| 
g--2-2-2-2-2-2-2-2-2-5-5-5-5-5-5-5-5-5-0-0-0-0-0-0-0-0---0-0---| 
d--2-2-2-2-2-2-2-2-2-5-5-5-5-5-5-5-5-5-3-3-3-3-3-3-3-3-/-5-5---| 
a--0-0-0-0-0-0-0-0-0-5-5-5-5-5-5-5-5-5-3-3-3-3-3-3-3-3-/-5-5---| 
E--------------------3-3-3-3-3-3-3-3-3-1-1-1-1-1-1-1-1-/-3-3---| 
 
 
e--------------------------------------------------------| 
b--0-0-0-0-0-0-0-0-0-------------------------------------| 
g--2-2-2-2-2-2-2-2-2-0-0-0-0-0-0-0-0-0---5-5-5-5-5-5-5---| 
d--2-2-2-2-2-2-2-2-2-3-3-3-3-3-3-3-3-3---5-5-5-5-5-5-5---| 
a--0-0-0-0-0-0-0-0-0-3-3-3-3-3-3-3-3-3---5-5-5-5-5-5-5---| 
E--------------------1-1-1-1-1-1-1-1-1---3-3-3-3-3-3-3---| 
 
Chorus: 
 
e------------------------------------------------| 
b------------------------------------------------| 
g--5-5-5-5-5-5-5-5-5-5-5-0-0-0-0-0-0-0-0-0-0-0---| 
d--5-5-5-5-5-5-5-5-5-5-5-3-3-3-3-3-3-3-3-3-3-3---| x3 
a--3-3-3-3-3-5-5-5-5-5-5-3-3-3-3-3-3-3-3-3-3-3---| 
E------------3-3-3-3-3-3-1-1-1-1-1-1-1-1-1-1-1---| 
 
then were it says without you 3 times you play this. 
 
e--0-0-0-0-0-3-3-3-3-3-3-------------------------| 
b--1-1-1-1-1-3-3-3-3-3-3-------------------------| 
g--0-0-0-0-0-0-0-0-0-0-0-0-0-0-0-0-0-0-0-0-0-0---| 
d--2-2-2-2-2-0-0-0-0-0-0-3-3-3-3-3-3-3-3-3-3-3---| 
a--0-0-0-0-0-2-2-2-2-2-2-3-3-3-3-3-3-3-3-3-3-3---| 
E------------3-3-3-3-3-3-1-1-1-1-1-1-1-1-1-1-1---| 
 
verse 2 
Chorus 
verse 3 
 
outro: 
 
i'm not so sure because the outro is quite long but i think the 
very last chord is this. 
 
e--------------| 
b--------------| 
g----0-~~~~~---| 
d----3-~~~~~---| 
a----3-~~~~~---| 
E----1-~~~~~---| 

		  

See also:

tabs Take That - Patience (intro) tabs John Lennon - Imagine (ver. 2) tabs Paul McCartney - Little Willow tabs Genesis - Entangled tabs Destiny's Child - Emotions tabs James Blunt - Same Mistake
e-chords

Other versions:

tabs Kiss - Without You tabs Eddie Vedder - Without You tabs Glee Cast - Without You tabs Mariah Carey - Without You tabs Breaking Benjamin - Without You tabs Small Town Heroes - Without You
auto scroll beats size up size down change color hide chords drawings
tab show chords e-chords YouTube Clip e-chords hide all tabs e-chords go to top tab

share