Busted

When Day Turns Into Night

Busted

tabs Advanced advanced

by  SPOOKYZOMBIE

save to print version add songbook text version e-mail correct tuner
chordsukulelecavacokeyboardtabbassdrumsharmonicaflute Guitar Pro
close

there isn't a video lesson for this song

chords

When Day Turns Into Night

	  		WHEN DAY TURNS INTO NIGHT 
 
(*)=palm mute 
(~)=let it ring 
(X)=muted strings 
(H)=hammer on 
(P)=pull off 
(/)=slide 
 
. 
 
 
intro: 
 
e--------------------------------------------------------------------| 
b--------------------------------------------------------------------| 
g--------------------------------------------------------------------| 
d------------------2-2-2-2-2-2-2-0-2-2-2-2-2-2-2-0-2-2-2-2-2-2-2-0---| 
a--2-2-2-2-2-2-2-0-4-4-4-4-4-4-4-0-2-2-2-2-2-2-2-0-3-3-3-3-3-3-3-0---| 
E--3-3-3-3-3-3-3-0---------------------------------------------------| 
 
verse 1: 
 
play intro x4 
 
Chorus: 
 
e-----------------------------------------------------------------------| 
b-----------------------------------------------------------------------| 
g----------------------------------0-0-0-0-0-0-0-0-0-0-0-0-0-0-0-0--0---| 
d--0-0-0-0-0-0-0-0-0-0-0-0-0-0-0-0-0-0-0-0-0-0-0-0-0-0-0-0-0-0-0-0--0---| 
a--2-2-2-2-2-2-2-2-0-0-0-0-0-0-0-0-7-7-7-7-7-7-7-7-7-7-7-7-7-7-7-7--0---| 
E--3-3-3-3-3-3-3-3-2-2-2-2-2-2-2-2-8-8-8-8-8-8-8-8-8-8-8-8-8-8-8-8--0---| 
  ================================================================ 
 
e---------------------------------------------------------------------------| 
b---------------------------------------------------------------------------| 
g--0-0-0-0-0-0-0-0-------------------------0-0-0-0-0-0-0-0-0-0-0-0-0-0-0-0--| 
d--2-2-2-2-2-2-2-2--0--0--0--0--0--0--0--0-0-0-0-0-0-0-0-0-0-0-0-0-0-0-0-0--| 
a--2-2-2-2-2-2-2-2--9--9--9--9--9--9--9--9-7-7-7-7-7-7-7-7-7-7-7-7-7-7-7-7--| 
E--0-0-0-0-0-0-0-0-10-10-10-10-10-10-10-10-8-8-8-8-8-8-8-8-8-8-8-8-8-8-8-8--| 
 
play the underlined part again then play this 
 
                                                 when the day turns into 
e-------------------------------------------------------|           night. 
b-------------------------------------------------------| 
g--0-0-0-0-0-0-0-0-0-0-0-0-0-0-0-0-0-0-0-0---0-~~~~~~---| 
d--4-4-4-0-2-2-2-2-2-2-2-2-2-2-2-2-2-2-2-2---2-~~~~~~---| 
a--5-5-5-0-2-2-2-2-2-2-2-2-0-0-0-0-0-0-0-0---3-~~~~~~---| 
E----------0-0-0-0-0-0-0-0------------------------------| 
 
play intro 
verse 2 
Chorus 
 
 the solo part is the violin solo 
 
e--------5--3-2-3----------------------5-3-2-3------| 
b--0-1-3--------------3-------0--0-1-3----------0---| 
g------------------0--------------------------------| 
d---------------------------------------------------| 
a---------------------------------------------------| 
E---------------------------------------------------| 
 
e--7-5-3-5-3-2-3------------| 
b------------------0-~~~~---| 
g---------------------------| 
d---------------------------| 
a---------------------------| 
E---------------------------| 
 
Chorus 
then play the intro x2 
 
miss out this part on the 2nd time 
 
e------------| 
b------------| 
g------------| 
d--2-2-2-2---| 
a--3-3-3-3---| 
E------------| 
 
instead play this to end the song 
 
e------------| 
b------------| 
g--0-~~~~~---| 
d--2-~~~~~---| 
a--3-~~~~~---| 
E------------| 

		  

See also:

tabs Take That - Patience (intro) tabs John Lennon - Imagine (ver. 2) tabs Paul McCartney - Little Willow tabs Genesis - Entangled tabs Destiny's Child - Emotions tabs James Blunt - Same Mistake
e-chords

Other versions:

tabs Busted - When Day Turns Into Night
auto scroll beats size up size down change color hide chords drawings
tab show chords e-chords YouTube Clip e-chords hide all tabs e-chords go to top tab

share