Busted

Falling for you

Busted

tabs Expert expert

by  STUMP

save to print version add songbook text version e-mail correct tuner
chordsukulelecavacokeyboardtabbassdrumsharmonicaflute Guitar Pro
close

there isn't a video lesson for this song

chords

Falling for you

Year: 2004 - Album: Busted

	  		Intro: 
Guitar 1: 
e ----------------------------------------------------- 
b -------0---------0---------0---------2--------------- 
g -----2----2------2---2-----2---2--------2-----4------ 
d ----2-----------2--------2--------------------------- 
a ----0-----------0--------0--------------------------- 
e ----------------------------------------------------- 
 
Guitar 2: 
e ----------------------------------------------------- 
b ----------------------------------------------------- 
g ----2------4-----7------2-----4-----7---------------- 
d ----2------4-----7------2-----4-----7---------------- 
a ----0------2-----5------0-----2-----5---------------- 
e ----------------------------------------------------- 
 
Verse:(Guitar 1 and Guitar 2) 
Semester's.... 
e ----------------------------------------------------- 
b ----------------------------------------------------- 
g ---2--2--2--2----4-4-4-4----7-7-7-7------------------ 
d ---2--2--2--2----4-4-4-4----7-7-7-7------------------ 
a ---0--0--0--0----2-2-2-2----5-5-5-5------------------ 
e ----------------------------------------------------- 
 
Next week.... 
e ------------------------------------------------------------------- 
b ------------------------------------------------------------------- 
g ------------9-9-9-9--7-7-7-7--9-9-9-9-----------9-9-9-9--7-7-7-7--9 
d --2-2-2-2---9-9-9-9--7-7-7-7--9-9-9-9--2-2-2-2--9-9-9-9--7-7-7-7--9 
a --2-2-2-2---7-7-7-7--5-5-5-5--7-7-7-7--2-2-2-2--7-7-7-7--5-5-5-5--7 
e ------------------------------------------------------------------- 
 
Chorus:I, I'm really falling for you..... 
e ----------------------------------------------------- 
b ----------------------------------------------------- 
g ---2-2-2-2---4-4-4-4--7-7-7-7-7-7-7-7---------------- 
d ---2-2-2-2---4-4-4-4--7-7-7-7-7-7-7-7---------------- 
a ---0-0-0-0---2-2-2-2--5-5-5-5-5-5-5-5---------------- 
e ----------------------------------------------------- 
 
What have you done to me now?..... 
e ----------------------------------------------------- 
b ----------------------------------------------------- 
g ---2-2-2---9-9-9---7-7-7-7---9-9-9-9-9--------------- 
d ---2-2-2---9-9-9---7-7-7-7---9-9-9-9-9--------------- 
a ---0-0-0---7-7-7---5-5-5-5---7-7-7-7-7--------------- 
e ----------------------------------------------------- 
 
e ----------------------------------------------------- 
b ----------------------------------------------------- 
g -----------9-9-9---7-7-7-7----9-9-9-9-9-------------- 
d ---2-2-2---9-9-9---7-7-7-7----9-9-9-9-9-------------- 
a ---2-2-2---7-7-7---5-5-5-5----7-7-7-7-7-------------- 
e ----------------------------------------------------- 
 
Intro Repeat(Guitar 1) 
Guitar 2: 
e ----------------------------------------------------- 
b ----------------------------------------------------- 
g ---2-2-2-2---4-4-4-4--7-7-7-7-7-7-7-7---------------- 
d ---2-2-2-2---4-4-4-4--7-7-7-7-7-7-7-7---------------- 
a ---0-0-0-0---2-2-2-2--5-5-5-5-5-5-5-5---------------- 
e ----------------------------------------------------- 
 
Verse Repeat and Chorus and repeat: 
Guitar 1: 
e ----------------------------------------------------- 
b -------0---------0---------0---------2--------------- 
g -----2----2------2---2-----2---2--------2-----4------ 
d ----2-----------2--------2--------------------------- 
a ----0-----------0--------0--------------------------- 
e ----------------------------------------------------- 
 
Guitar 2: 
e ----------------------------------------------------- 
b ----------------------------------------------------- 
g ---2-2-2-2---4-4-4-4--7-7-7-7-7-7-7-7---------------- 
d ---2-2-2-2---4-4-4-4--7-7-7-7-7-7-7-7---------------- 
a ---0-0-0-0---2-2-2-2--5-5-5-5-5-5-5-5---------------- 
e ----------------------------------------------------- 
Taking over my life...(palm muted) 
e --------------------------------------------------------------------------------------- 
b --------------------------------------------------------------------------------------- 
g ---2--2--2--2--4--4--4--4--7--7--7--7--7--7----2--2--2--2--4--4--4--4--7--7--7--7--7--7 
d ---2--2--2--2--4--4--4--4--7--7--7--7--7--7----2--2--2--2--4--4--4--4--7--7--7--7--7--7 
a ---0--0--0--0--2--2--2--2--5--5--5--5--5--5----0--0--0--0--2--2--2--2--5--5--5--5--5--5 
e --------------------------------------------------------------------------------------- 
 
 
e ----------------------------------------------------- 
b ----------------------------------------------------- 
g -----------9--9--9--9--9---7--7--7--7--7--9-9-9-9-9-- 
d ---2-2-2---9--9--9--9--9---7--7--7--7--7--9-9-9-9-9-- 
a ---2-2-2---7--7--7--7--7---5--5--5--5--5--7-7-7-7-7-- 
b ----------------------------------------------------- 
 
Chorus (acoustic) 
e ----------------------------------------------------- 
b ----------------------------------------------------- 
g ---2-2-2-2---4-4-4-4--7-7-7-7--4-4-4-4--------------- 
d ---2-2-2-2---4-4-4-4--7-7-7-7--4-4-4-4--------------- 
a ---0-0-0-0---2-2-2-2--5-5-5-5--2-2-2-2--------------- 
e ----------------------------------------------------- 
What have you done to me now?..... 
e ----------------------------------------------------- 
b ----------------------------------------------------- 
g ---2-2-2---9-9-9---7-7-7-7---9-9-9-9-9--------------- 
d ---2-2-2---9-9-9---7-7-7-7---9-9-9-9-9--------------- 
a ---0-0-0---7-7-7---5-5-5-5---7-7-7-7-7--------------- 
e ----------------------------------------------------- 
 
e ----------------------------------------------------- 
b ----------------------------------------------------- 
g -----------9-9-9---7-7-7-7----9-9-9-9-9-------------- 
d ---2-2-2---9-9-9---7-7-7-7----9-9-9-9-9-------------- 
a ---2-2-2---7-7-7---5-5-5-5----7-7-7-7-7-------------- 
e ----------------------------------------------------- 
Guitar 1: 
e ----------------------------------------------------- 
b -------0---------0---------0---------2--------------- 
g -----2----2------2---2-----2---2--------2-----4------ 
d ----2-----------2--------2--------------------------- 
a ----0-----------0--------0--------------------------- 
e ----------------------------------------------------- 
Guitar 2: 
e ----------------------------------------------------- 
b ----------------------------------------------------- 
g ---2-2-2-2---4-4-4-4--7-7-7-7-7-7-7-7---------------- 
d ---2-2-2-2---4-4-4-4--7-7-7-7-7-7-7-7---------------- 
a ---0-0-0-0---2-2-2-2--5-5-5-5-5-5-5-5---------------- 
e ----------------------------------------------------- 
 
Chorus Ultime: 
Guitar 1: 
e ----------------------------------------------------- 
b -------0---------0---------0---------2--------------- 
g -----2----2------2---2-----2---2--------2-----4------ 
d ----2-----------2--------2--------------------------- 
a ----0-----------0--------0--------------------------- 
e ----------------------------------------------------- 
Guitar 2: 
e ----------------------------------------------------- 
b ----------------------------------------------------- 
g ---2-2-2-2---4-4-4-4--7-7-7-7-7-7-7-7---------------- 
d ---2-2-2-2---4-4-4-4--7-7-7-7-7-7-7-7---------------- 
a ---0-0-0-0---2-2-2-2--5-5-5-5-5-5-5-5---------------- 
e ----------------------------------------------------- 
 
What have you done to me now?..... 
e ----------------------------------------------------- 
b ----------------------------------------------------- 
g ---2-2-2---9-9-9---7-7-7-7---9-9-9-9-9--------------- 
d ---2-2-2---9-9-9---7-7-7-7---9-9-9-9-9--------------- 
a ---0-0-0---7-7-7---5-5-5-5---7-7-7-7-7--------------- 
e ----------------------------------------------------- 
 
e ----------------------------------------------------- 
b ----------------------------------------------------- 
g -----------9-9-9---7-7-7-7----9-9-9-9-9-------------- 
d ---2-2-2---9-9-9---7-7-7-7----9-9-9-9-9-------------- 
a ---2-2-2---7-7-7---5-5-5-5----7-7-7-7-7-------------- 
e ----------------------------------------------------- 
 
End Note: 
e ----- 
b ----- 
g --2-- 
d --2-- 
a --0-- 
e ----- 
 
 
Im gOod Busted Punk 

		  

See also:

tabs Take That - Patience (intro) tabs John Lennon - Imagine (ver. 2) tabs Paul McCartney - Little Willow tabs Genesis - Entangled tabs Destiny's Child - Emotions tabs James Blunt - Same Mistake
e-chords

Other versions:

tabs Busted - Falling for you tabs Weezer - Falling For You tabs Weezer - Falling For You (ver. 2)
auto scroll beats size up size down change color hide chords drawings
tab show chords e-chords YouTube Clip e-chords hide all tabs e-chords go to top tab

share