Busdriver

Imaginary Places Tab

Busdriver

Difficulty: nolevelnolevel

by carlluz

tuner correct add songbook print version text version save to e-mail
chordsukulelecavacokeyboardtabbassdrumsharmonicsflute Guitar Pro
close

there isn't a video lesson for this song

chords

Imaginary Places

  		
Main Riff 
e|-7-10-7----7--------------------------------------------------------| 
B|--------7----7----7-------------------------------------------------| 
G|---------------7----7------------7---6---6-------6--9--6--7--6------| x 4 
D|----------------------9~~~-----9---9---9---9---8----------------9~~~| 
A|-----------------------------9--------------------------------------| 
E|--------------------------------------------------------------------| 

Bridge 
e|---------7-------------------10--------------| 
B|---------------------7-7-7-7----7--7h8-6~~---| 
G|-7-7-7-7---7-7h9-6~~-------------------------| 
D|---------------------------------------------| 
A|---------------------------------------------| 
E|---------------------------------------------| 

e|-----5---4---4------4-7-4-5-4-5-4----5-------7-------9-------10-------| 
B|---7---7---7---7--6----------------7--7-6-7----7-6-7---7-6-7----7-6---| 
G|-6--------------------------------------------------------------------| 
D|----------------------------------------------------------------------| 
A|----------------------------------------------------------------------| 
E|----------------------------------------------------------------------| 

Main Riff 
e|-7-10-7----7--------------------------------------------------------| 
B|--------7----7----7-------------------------------------------------| 
G|---------------7----7------------7---6---6-------6--9--6--7--6------| x 4 
D|----------------------9~~~-----9---9---9---9---8----------------9~~~| 
A|-----------------------------9--------------------------------------| 
E|--------------------------------------------------------------------| 

************************************ 

| ~  Vibrato 
| h  Hammer-on 

************************************ 
	  

auto scroll beats size up size down change color hide chords drawings
tab show chords e-chords YouTube Clip e-chords hide all tabs e-chords go to top tab

share with facebook

Search Paypal