Bury Tomorrow

Redeemer

Bury Tomorrow

tabs

by  JESSGOMES

save to print version add songbook text version e-mail correct tuner
chordsukulelecavacokeyboardtabbassdrumsharmonicaflute Guitar Pro
close

there isn't a video lesson for this song

chords

Redeemer

	  		 

Intro (Lead) 

D|-----------------8-8-------10-10-----------------------------------------| 
A|-------10-10-8-8-----10-10-----------------------------------------------| 
F|-777777--------------------------9b(9)-9b(9)-9b(10)----------------------| 
C|-------------------------------------------------------------------------| 
G|-------------------------------------------------------------------------| 
C|-------------------------------------------------------------------------| 

D|------------------8-8----------------------------------------------------| 
A|--------10-10-8-8--------------------------------------------------------| 
F|-777777---------------9b(9)-9b(9)-9b(9)-9b(10)-9b(10)-9b(10)-9b(10)------| 
C|-------------------------------------------------------------------------| 
G|-------------------------------------------------------------------------| 
C|-------------------------------------------------------------------------| 

Intro (Rhythm) - These chords fade in right at the start. 

D|-------------------------------------------------------------------------| 
A|-------------------------------------------------------------------------| 
F|-------------------------------------------------------------------------| 
C|-0---3---8---7-----------------------------------------------------------| 
G|-0---3---8---7-----------------------------------------------------------| 
C|-0---3---8---7-----------------------------------------------------------| 

Intro (Rhythm) - When the drums kick in, all palm muted. Not written completely  
accurately but easy to work out just listening to the song. Start with a slide down the neck. 

D|-------------------------------------------------------------------------| 
A|-------------------------------------------------------------------------| 
F|-------------------------------------------------------------------------| 
C|-0-0-0--0000--0--0--0-0--0--0-0-0--0--0----------------------------------| 
G|-0-0-0--0000--0--0--0-0--0--0-0-0--0--0----------------------------------| 
C|-0-0-0--0000--0--0--0-0--0--0-0-0--0--0----------------------------------| 


D|-------------------------------------------------------------------------| 
A|-------------------------------------------------------------------------| 
F|-------------------------------------------------------------------------| 
C|-0-0-0--0000--0--0---0---0---0---0---0-----------------------------------| 
G|-0-0-0--0000--0--0---0---0---0---0---0-----------------------------------| 
C|-0-0-0--0000--0--0---0---0?--0---0---0-----------------------------------| 

X2 and then this? still all palm muted except the first chord on the 3rd fret, which  
rings out slightly. 


D|-------------------------------------------------------------------------| 
A|-------------------------------------------------------------------------| 
F|-------------------------------------------------------------------------| 
C|-0-0-0--0000--0--0--3-3---3--3-3-3--3--3---------------------------------| 
G|-0-0-0--0000--0--0--3-3---3--3-3-3--3--3---------------------------------| 
C|-0-0-0--0000--0--0--3-3---3--3-3-3--3--3---------------------------------| 


D|-------------------------------------------------------------------------| 
A|-------------------------------------------------------------------------| 
F|-------------------------------------------------------------------------| 
C|-8-8-8--8888--8--8---7---7---7---7---7-----------------------------------| 
G|-8-8-8--8888--8--8---7---7---7---7---7-----------------------------------| 
C|-8-8-8--8888--8--8---7---7?--7---7---7-----------------------------------| 

D|-------------------------------------------------------------------------| 
A|-------------------------------------------------------------------------| 
F|-------------------------------------------------------------------------| 
C|-0-0-0--0000--0--0--3-3---3--3-3-3--3--3---------------------------------| 
G|-0-0-0--0000--0--0--3-3---3--3-3-3--3--3---------------------------------| 
C|-0-0-0--0000--0--0--3-3---3--3-3-3--3--3---------------------------------| 


D|-------------------------------------------------------------------------| 
A|-------------------------------------------------------------------------| 
F|-------------------------------------------------------------------------| 
C|-8-8-8--8888--8--8-10--10--3--3--5---------------------------------------| 
G|-8-8-8--8888--8--8-10--10--3--3?-5---------------------------------------| 
C|-8-8-8--8888--8--8-10--10-?3--3?-5---------------------------------------| 

Both guitars play this before the verse. 

D|-------------------------------------------------------------------------| 
A|-------------------------------------------------------------------------| 
F|-------------------------------------------------------------------------| 
C|-3-2-3-------------------------------------------------------------------| 
G|-3-2-3-------------------------------------------------------------------| 
C|-3-2-3-------------------------------------------------------------------| 

Verse Riff 1 (Lead) fast and alternate picked 16 notes. 

D|-------------------------------------------------------------------------| 
A|-------------------------------------------------------------------------| 
F|----------------------14-------------------------------------------------| 
C|-12-12-12-15-12-14-12----12-12-12-15-12-14-15-----x3---------------------| 
G|-------------------------------------------------------------------------| 
C|-------------------------------------------------------------------------| 

D|-------------------------------------------------------------------------| 
A|-------------------------------------15-15-15-15-------------------------| 
F|-------------------12-12-12-14-14-14-------------------------------------| 
C|-12-12-12-15-15-15-------------------------------------------------------| 
G|-------------------------------------------------------------------------| 
C|-------------------------------------------------------------------------| 

D|-------------------------------------------------------------------------| 
A|-------------------------------------------------------------------------| 
F|----------------------14-------------------------------------------------| 
C|-12-12-12-15-12-14-12----12-12-12-15-12-14-15-----x3---------------------| 
G|-------------------------------------------------------------------------| 
C|-------------------------------------------------------------------------| 
D|-------------------------------------------------------------------------| 
A|-------------------------------------------------------------------------| 
F|-------------------12-12-------------------------------------------------| 
C|-12-12-12-15-15-15-------------------------------------------------------| 
G|-------------------------------------------------------------------------| 
C|-------------------------------------------------------------------------| 

Verse Riff 1 (Rhythm) 

D|-------------------------------------------------------------------------| 
A|-------------------------------------------------------------------------| 
F|-------------------------------------------------------------------------| 
C|-8--8-8-8-8-5--5-5-5-5-0--0-0-0-0-10--10-10-10-10------------------------| 
G|-8--8-8-8-8-5--5-5-5-5-0--0-0-0-0-10--10-10-10-10------------------------| 
C|-8--8-8-8-8-5--5-5-5-5-0--0-0-0-0-10--10-10-10-10------------------------| 

D|-------------------------------------------------------------------------| 
A|-------------------------------------------------------------------------| 
F|-------------------------------------------------------------------------| 
C|-8--8-8-8-8-5--5-5-5-5-0--0-0-0-0-0--0-0-0-0-----------------------------| 
G|-8--8-8-8-8-5--5-5-5-5-0--0-0-0-0-0--0-0-0-0-----------------------------| 
C|-8--8-8-8-8-5--5-5-5-5-0--0-0-0-0-0--0-0-0-0-----------------------------| 

D|-------------------------------------------------------------------------| 
A|-------------------------------------------------------------------------| 
F|-------------------------------------------------------------------------| 
C|-8--8-8-8-8-5--5-5-5-5-0--0-0-0-0-10--10-10-10-10------------------------| 
G|-8--8-8-8-8-5--5-5-5-5-0--0-0-0-0-10--10-10-10-10------------------------| 
C|-8--8-8-8-8-5--5-5-5-5-0--0-0-0-0-10--10-10-10-10------------------------| 

D|-------------------------------------------------------------------------| 
A|-------------------------------------------------------------------------| 
F|-------------------------------------------------------------------------| 
C|-8--8-8-8-8-5--5-5-5-5-0--0-0-0------------------------------------------| 
G|-8--8-8-8-8-5--5-5-5-5-0--0-0-0------------------------------------------| 
C|-8--8-8-8-8-5--5-5-5-5-0--0-0-0------------------------------------------| 

Verse Riff 2 (Both guitars) All 10s and 12s, not 1s, 0s or 2s. 

D|-------------------------------------------------------------------------| 
A|-------------------------------------------------------------------------| 
F|-------------------------------------------------------------------------| 
C|--------------------1212-------------10-12-------------------------------| 
G|--12-12-10-10-12-12------12-12-10-10-------777---------------------------| 
C|-8--8--8--8--8--8--8----8--8--8--8--8--8---------------------------------| 
   .  .  .  .  .  .  .    .  .  .  .  .  . 
D|-------------------------------------------------------------------------| 
A|-------------------------------------------------------------------------| 
F|-------------------------------------------------------------------------| 
C|---------------------------------------5h7-------------------------------| 
G|--8-8-7-7-8-8-7br(8)-8-8-7-7------5h7h8----------------------------------| 
C|-5-5-5-5-5-5-5------5-5-5-5--0h5h8---------------------------------------| 

Repeat twice. On second time the hammer-on run is repeated and harmonised. 

D|-------------------------------------------------------------------------| 
A|-Guitar 1----------------------Guitar 2----------------------------------| 
F|-------------------------------------------------------------------------| 
C|-----------5h7------------------------------8h10-------------------------| 
G|------5h7h8--------------------------8h10h12-----------------------------| 
C|-0h5h8-------------------------0h8h12------------------------------------| 
Breakdown (same as rhythm part in the intro) x2 

D|-------------------------------------------------------------------------| 
A|-------------------------------------------------------------------------| 
F|-------------------------------------------------------------------------| 
C|-0-0-0--0000--0--0--0-0--0--0-0-0--0--0----------------------------------| 
G|-0-0-0--0000--0--0--0-0--0--0-0-0--0--0----------------------------------| 
C|-0-0-0--0000--0--0--0-0--0--0-0-0--0--0----------------------------------| 


D|-------------------------------------------------------------------------| 
A|-------------------------------------------------------------------------| 
F|-------------------------------------------------------------------------| 
C|-0-0-0--0000--0--0---0---0---0---0---0-----------------------------------| 
G|-0-0-0--0000--0--0---0---0---0---0---0-----------------------------------| 
C|-0-0-0--0000--0--0---0---0?--0---0---0-----------------------------------| 

Lead part that comes in on second time round. This part can be tricky so go through the  
tab one tap at a time. 



D|-------------------------------------------------------------------------| 
A|-------------------------------------------------------------------------| 
F|-t14p7t14/15p7t15p7t14p7t12/14p7h9p7h9h10--------------------------------| 
C|-------------------------------------------------------------------------| 
G|-------------------------------------------------------------------------| 
C|-------------------------------------------------------------------------| 

D|---------------------------------8h10------------------------------------| 
A|-----------------------------8h10----------------------------------------| 
F|-t14p7t14/15p7t15p7t14p7h9h10--------------------------------------------| 
C|-------------------------------------------------------------------------| 
G|-------------------------------------------------------------------------| 
C|-------------------------------------------------------------------------| 

X2 


Pre-chorus (Lead) 

D|-----------------8-8-------10-10-----------------------------------------| 
A|-------10-10-8-8-----10-10-----------------------------------------------| 
F|-777777--------------------------9b(9)-9b(9)-9b(10)----------------------| 
C|-------------------------------------------------------------------------| 
G|-------------------------------------------------------------------------| 
C|-------------------------------------------------------------------------| 

Pre-chorus (Rhythm) ring out this chord 

D|-------------------------------------------------------------------------| 
A|-------------------------------------------------------------------------| 
F|-------------------------------------------------------------------------| 
C|-12----------------------------------------------------------------------| 
G|-8-----------------------------------------------------------------------| 
C|-8-----------------------------------------------------------------------| 



Chorus (Lead) x4 

D|-----------------8-8-------10-10-----------------------------------------| 
A|-------10-10-8-8-----10-10-----------------------------------------------| 
F|-777777--------------------------9b(9)-9b(9)-9b(10)----------------------| 
C|-------------------------------------------------------------------------| 
G|-------------------------------------------------------------------------| 
C|-------------------------------------------------------------------------| 

D|------------------8-8----------------------------------------------------| 
A|--------10-10-8-8--------------------------------------------------------| 
F|-777777---------------9b(9)-9b(9)-9b(9)-9b(10)-9b(10)-9b(10)-9b(10)------| 
C|-------------------------------------------------------------------------| 
G|-------------------------------------------------------------------------| 
C|-------------------------------------------------------------------------| 

Chorus (Rhythm) x4 

D|-------------------------------------------------------------------------| 
A|-------------------------------------------------------------------------| 
F|-------------------------------------------------------------------------| 
C|-------------------------------------------------------------------------| 
G|-------------------------------------------------------------------------| 
C|-0-0-0-0-0-0-0-0-3-3-3-3-3-3-3-3-8-8-8-8-8-8-8-8-7-7-7-7-7-7-7-7---------| 


Now repeat Verse Riff 1, Verse Riff 2, Breakdown, Pre-chorus and Chorus. 


Bridge (Lead) x4 to me it sounds like on the 4th time round it doesn?t go to the 20, it  
repeats the 18 twice, may be something else but I think that?s right 

D|-17-------17-------17-------17-------17-------17-------18-------20-------| 
A|----15-------15-------15-------15-------15-------15-------15-------15----| 
F|-------------------------------------------------------------------------| 
C|-------------------------------------------------------------------------| 
G|-------17-------17-------17-------17-------17-------17-------17-------17-| 
C|-------------------------------------------------------------------------| 

Bridge (Rhythm) x2 

D|-------------------------------------------------------------------------| 
A|-------------------------------------------------------------------------| 
F|-------------------------------------------------------------------------| 
C|-8------8-7-3-0--------8------8-7-3-0----10------------------------------| 
G|-8------8-7-3-0--------8------8-7-3-0----10------------------------------| 
C|-8------8-7-3-0--------8------8-7-3-0----10------------------------------| 
 
		  

See also:

tabs The Beatles - And i love her(guitar full version) tabs The Cranberries - Zombie tabs The Beatles - All You Need Is Love Acoustic tabs Eric Clapton - Hey, Hey tabs Coldplay - In My Place tabs Santana - Europa
e-chords

Other versions:

tabs Bury Tomorrow - Redeemer tabs Judas Priest - Redeemer Of Souls
auto scroll beats size up size down change color hide chords drawings
tab show chords e-chords YouTube Clip e-chords hide all tabs e-chords go to top tab

share