Bumblefoot

Wasted Away

Bumblefoot

tabs

by  ANG-LETRA

save to print version add songbook text version e-mail correct tuner
chordsukulelecavacokeyboardtabbassdrumsharmonicaflute Guitar Pro
close

there isn't a video lesson for this song

chords

Wasted Away

	  		 awesome song. 

e|-------------------------------------------------------16------------------| x2 
B|------------------------------------9--9h10-9------------------------------| 
G|------------------------------------------------13h14----------------------| 
D|-----6------------6-----------6h7------------------------------------------| 
A|-------7s9-7~-------7s9-7~-------------------------------------------------| 
E|--0------------6------------5----------------------------------------------| 

Here are a few measures of bass, which essentially is what the low E-string played above, 
so feel free to play along :) 

e|-------------------------------------------------------16------------------|  
B|------------------------------------9--9h10-9------------------------------| 
G|------------------------------------------------13h14----------------------| 
D|-----6------------6-----------6h7------------------------------------------| 
A|-------7s9-7~-------7s9-7~-------------------------------------------------| 
E|--0------------6------------5----------------------------------------------| 


e|---------------------------------------------------------------------------|  
B|--------------------------------------------------------9------------------| 
G|--------------------------------------------------------10b12--------------| 
D|-----6------------6---------7-6h7-6---7-6h7-6---7-6h7----------------------| 
A|-------7s9-7~-------7s9-7~--7---------7---------7--------------------------| 
E|--0------------6------------5---------5---------5--------------------------| 

Listen to the track for the strumming pattern and timing here. 

e|---------------------------------------------------------------------------|  
B|-----------------------------------------9---------------------------------| 
G|-----------------------------------------10b12-----------------------------| 
D|--9----8----7-6h7-6---7-6h7-6---7-6h7--------------------------------------| 
A|--7----8----7---------7---------7------------------------------------------| 
E|--0----6----5---------5---------5------------------------------------------| 

e|---------------------------------------------------------------------------| 
B|---------------------------------------------------------------------------| 
G|---------------------------------------------------------------------------| 
D|--9---------9~-------------------------------------------------------------| 
A|--7--s4~--4s7~-------------------------------------------------------------| 
E|--0------------------------------------------------------------------------| 

Intro x1 
Bass x2 
Intro x1 
Verse 
Solo (which i won't bother tabbing, unless someone want the exact thing, let me know) 

The part after the solo (which doesn't include the occasional lead whiff): 

e|---------------------------------------------------------------------------| 
B|---------------------------------------------------------------------------| 
G|---------------------------------------------------------------------------| 
D|---------------------------------------------------------------------------| 
A|--11--8---7--------------------------------------------------------------------| 
E|--9---6---5-------------------------------------------------------------------| 

This is the basic gist of the song. I did this from memory, and didn't tab the solo on the grounds that I  
usually improvise it. 

If anyone finds any mistakes or otherwise have any improvements to be implemented, don't hesitate to contact me. 
************************************ 

| /   slide up 
| \   slide down 
| h   hammer-on 
| p   pull-off 
| ~   vibrato 
| +   harmonic 
| x   Mute note 
| b   Bend 
| pb  Pre-bend 
| br  Bend release 
| pbr Pre-bend release 
| brb Bend release bend 

************************************ 
		  

See also:

tabs Red Hot Chili Peppers - I Could Have Lied tabs Ben Harper - Diamonds on inside tabs Red Hot Chili Peppers - By The Way (ver. 2) tabs Audioslave - Show Me How To Live tabs Incubus - 11 A.M. tabs Red Hot Chili Peppers - Scar Tissue
e-chords

Other versions:

tabs Bumblefoot - Wasted Away
auto scroll beats size up size down change color hide chords drawings
tab show chords e-chords YouTube Clip e-chords hide all tabs e-chords go to top tab

share