Bumblefoot

Guitars Suck

Bumblefoot

tabs Expert expert

by  CARLLUZ

save to print version add songbook text version e-mail correct tuner
chordsukulelecavacokeyboardtabbassdrumsharmonicaflute Guitar Pro
close

there isn't a video lesson for this song

chords

Guitars Suck

	  		||------------------------------------------------| 
||o-----------------------------------------------| 
||--5p2---2h5h9p5p2h5h9h10p7---7h10h14p10p7h10h14-| 
||------2--------------------7--------------------| 
||o-----------------------------------------------| 
||------------------------------------------------| 

|--------------------------------------------------------------| 
|--------------------------------------------------------------| 
|-16p12----12h16h19p16p12h16h19h21p17----17h21h24p21p17h21h24--| 
|-------12----------------------------17-----------------------| 
|--------------------------------------------------------------| 
|--------------------------------------------------------------| 

|-17p13----13h17h20p17p13h17h20h22p18----18h22h25p22p18h22h25-| 
|-------13----------------------------18----------------------| 
|-------------------------------------------------------------| 
|-------------------------------------------------------------| 
|-------------------------------------------------------------| 
|-------------------------------------------------------------| 

|-24p20----20h24h29p24-20h24h29\p28p24p19h24-28-/31---| 
|-------22--------------------------------------------| 
|-----------------------------------------------------| 
|-----------------------------------------------------| 
|-----------------------------------------------------| 
|-----------------------------------------------------| 

|-29p24p21p19p17h27p21p19p17p15h25p19p17p15p13h22p13h15h17h19-| 
|-------------------------------------------------------------| 
|-------------------------------------------------------------| 
|-------------------------------------------------------------| 
|-------------------------------------------------------------| 
|-------------------------------------------------------------| 

|-27p22p19p17p15h25p19p17p15p13h24p17p15p13p12h20p12h13h15h17-| 
|-------------------------------------------------------------| 
|-------------------------------------------------------------| 
|-------------------------------------------------------------| 
|-------------------------------------------------------------| 
|-------------------------------------------------------------| 

  1. 
|-30p24p22p20p18----18h20h22h24h29p24p22p20p17----17h20h22h24-| 
|----------------30----------------------------29-------------| 
|-------------------------------------------------------------| 
|-------------------------------------------------------------| 
|-------------------------------------------------------------| 
|-------------------------------------------------------------| 

|-28-23-20-18-16----16-18-20-23-27-22-19-17-15-x-24---|| 
|----------------28------------------------------------o|| 
|-------------------------------------------------------|| 
|-------------------------------------------------------|| 
|------------------------------------------------------o|| 
|-------------------------------------------------------|| 

  2. 
|-22p18p13h18h22h24p18p13h18h24p20p17p12h17h20h22p17p12h17h22-| 
|-------------------------------------------------------------| 
|-------------------------------------------------------------| 
|-------------------------------------------------------------| 
|-------------------------------------------------------------| 
|-------------------------------------------------------------| 

|-20p16p11h16h20h22p16p11h16h22p19p15p10------------| 
|----------------------------------------12-18p17---| 
|---------------------------------------------------| 
|---------------------------------------------------| 
|---------------------------------------------------| 
|---------------------------------------------------| 

|-------------------------------------------| 
|-------------------------------------------| 
|-5p2---2h5h9p5p2h5h9p8-4---4h6h11p8p4h8h11-| 
|-----2-------------------4-----------------| 
|-------------------------------------------| 
|-------------------------------------------| 

|-----------------------------------------5-| 
|---------------------------------------5---| 
|-16p7---7h10h13p10p7h10h13h14--------5-----| 
|------8----------------------------7-------| 
|---------------------------------7---------| 
|-------------------------------5-----------| 

|-8p5---5h8h12p8p5h8h12p11p7---7h11h14p11p7h11h14-| 
|-----5----------------------7--------------------| 
|-------------------------------------------------| 
|-------------------------------------------------| 
|-------------------------------------------------| 
|-------------------------------------------------| 

|-13p10----10h13h16p13p10h13h16h17------| 
|-------11------------------------------| 
|---------------------------------------| 
|---------------------------------------| 
|-----------------------------------x---| 
|-----------------------------------x\--| 

|-------------------------------------------| 
|-------------------------------------------| 
|-5p2---2h5h9p5p2h5h9-\8p4---4h8-\7p3---3h7s| 
|-----2--------------------4----------3-----| 
|-------------------------------------------| 
|-------------------------------------------| 

|-------------------------------------------| 
|-------------------------------------------| 
|-5p2---2h5h9p5p2h5h9-\8p4---4h8-\7p3---3h7-| 
|-----2--------------------4----------3-----| 
|-------------------------------------------| 
|-------------------------------------------| 

|--------------------------------------------| 
|--------------------------------------------| 
|-5p2---2h5h9p5p2h5h9-\8p4---4h8-11p8p4h8h11p| 
|-----2--------------------4-----------------| 
|--------------------------------------------| 
|--------------------------------------------| 

|------------------------------------------5-| 
|----------------------------------------5---| 
|-10p7---7h10-13p10p7h10h13-/14--------5-----| 
|------8-----------------------------7-------| 
|----------------------------------7---------| 
|--------------------------------5-----------| 

|-8p5---5h8h12p8p5h8h12-\11p7---7h11-\10p6---6h10-| 
|-----5-----------------------7------------6------| 
|-------------------------------------------------| 
|-------------------------------------------------| 
|-------------------------------------------------| 
|-------------------------------------------------| 

|-8p5---5h8h12p8p5h8h12-\11p7---7h11-\10p6---6h10-| 
|-----5-----------------------7------------6------| 
|-------------------------------------------------| 
|-------------------------------------------------| 
|-------------------------------------------------| 
|-------------------------------------------------| 

|-8p5---5h8h12p8p5h8h12-\11p7---7h11h14p11p7h11h14-\13p10----10h13h16p13p10h13h16--| 
|-----5-----------------------7---------------------------11-----------------------| 
|----------------------------------------------------------------------------------| 
|----------------------------------------------------------------------------------| 
|----------------------------------------------------------------------------------| 
|----------------------------------------------------------------------------------| 

|-/17----17----17----17----17----17----17----17----17----17----17----17-| 
|-----21----20----19----18----------------------------------------------| 
|-----------------------------21----20----19----18----------------------| 
|-----------------------------------------------------22----21----20----| 
|-----------------------------------------------------------------------| 
|-----------------------------------------------------------------------| 

|----21-------20-------19-------18-------17-------16-------15-------14----|----13-------12------11------10--------------| 
|-------------------------------------------------------------------------|---------------------------------------------| 
|-------21-------20-------19-------18-------17-------16-------15-------14-|-------13-------12------11------10-----------| 
|-19-------18-------17-------16-------15-------14-------13-------12-------|-11-------10-------9-------8-------7---------| 
|-------------------------------------------------------------------------|---------------------------------------------| 
|-------------------------------------------------------------------------|--------------------------------------(0)----| 

|-----------------------------------------------| 
|-----------------------------------------------| 
|-5p2---2h5h9p5p2h5h9h10p7---7h10h14p10p7h10h14-| 
|-----2--------------------7--------------------| 
|-----------------------------------------------| 
|-----------------------------------------------| 

|-------------------------------------------------------------| 
|-------------------------------------------------------------| 
|-16p12----12h16h19p16p12h16h19h21p17----17h21h24p21p17h21h24-| 
|-------12----------------------------17----------------------| 
|-------------------------------------------------------------| 
|-------------------------------------------------------------| 

|-17p13----13h17h20p17p13h17h20h22p18----18h22h25p22p18h22h25-| 
|-------13----------------------------18----------------------| 
|-------------------------------------------------------------| 
|-------------------------------------------------------------| 
|-------------------------------------------------------------| 
|-------------------------------------------------------------| 

|-24p20----20h24h29p24-20h24h29\p28p24p19h24-28-/31---| 
|-------22--------------------------------------------| 
|-----------------------------------------------------| 
|-----------------------------------------------------| 
|-----------------------------------------------------| 
|-----------------------------------------------------| 

|-29p24p21p19p17h27p21p19p17p15h25p19p17p15p13h22p13h15h17h19-| 
|-------------------------------------------------------------| 
|-------------------------------------------------------------| 
|-------------------------------------------------------------| 
|-------------------------------------------------------------| 
|-------------------------------------------------------------| 

|-27p22p19p17p15h25p19p17p15p13h24p17p15p13p12h20p12h13h15h17-| 
|-------------------------------------------------------------| 
|-------------------------------------------------------------| 
|-------------------------------------------------------------| 
|-------------------------------------------------------------| 
|-------------------------------------------------------------| 

|-22p18p13h18h22h24p18p13h18h24p20p17p12h17h20h22p17p12h17h22-| 
|-------------------------------------------------------------| 
|-------------------------------------------------------------| 
|-------------------------------------------------------------| 
|-------------------------------------------------------------| 
|-------------------------------------------------------------| 

|-20p16p11h16h20h22p16p11h16h22p19p15p10------------| 
|----------------------------------------12-18p17---| 
|---------------------------------------------------| 
|---------------------------------------------------| 
|---------------------------------------------------| 
|---------------------------------------------------| 

|-------------------------------------------| 
|-------------------------------------------| 
|-5p2---2h5h9p5p2h5h9p8-4---4h6h11p8p4h8h11-| 
|-----2-------------------4-----------------| 
|-------------------------------------------| 
|-------------------------------------------| 

|-----------------------------------------5-| 
|---------------------------------------5---| 
|-16p7---7h10h13p10p7h10h13h14--------5-----| 
|------8----------------------------7-------| 
|---------------------------------7---------| 
|-------------------------------5-----------| 

|-8p5---5h8h12p8p5h8h12p11p7---7h11h14p11p7h11h14-| 
|-----5----------------------7--------------------| 
|-------------------------------------------------| 
|-------------------------------------------------| 
|-------------------------------------------------| 
|-------------------------------------------------| 

|-13p10----10h13h16p13p10h13h16h17------| 
|-------11------------------------------| 
|---------------------------------------| 
|---------------------------------------| 
|-----------------------------------x---| 
|-----------------------------------x\--| 

|-------------------------------------------| 
|-------------------------------------------| 
|-5p2---2h5h9p5p2h5h9-\8p4---4h8-\7p3---3h7s| 
|-----2--------------------4----------3-----| 
|-------------------------------------------| 
|-------------------------------------------| 

|-------------------------------------------| 
|-------------------------------------------| 
|-5p2---2h5h9p5p2h5h9-\8p4---4h8-\7p3---3h7-| 
|-----2--------------------4----------3-----| 
|-------------------------------------------| 
|-------------------------------------------| 

|--------------------------------------------| 
|--------------------------------------------| 
|-5p2---2h5h9p5p2h5h9-\8p4---4h8-11p8p4h8h11p| 
|-----2--------------------4-----------------| 
|--------------------------------------------| 
|--------------------------------------------| 

|------------------------------------------5-| 
|----------------------------------------x---| 
|-10p7---7h10-13p10p7h10h13-/14--------5-----| 
|------8-----------------------------x-------| 
|----------------------------------x---------| 
|--------------------------------5-----------| 

|-8p5---5h8h12p8p5h8h12-\11p7---7h11-\10p6---6h10-| 
|-----5-----------------------7------------6------| 
|-------------------------------------------------| 
|-------------------------------------------------| 
|-------------------------------------------------| 
|-------------------------------------------------| 

|-8p5---5h8h12p8p5h8h12-\11p7---7h11-\10p6---6h10-| 
|-----5-----------------------7------------6------| 
|-------------------------------------------------| 
|-------------------------------------------------| 
|-------------------------------------------------| 
|-------------------------------------------------| 

|-8p5---5h8h12p8p5h8h12-\11p7---7h11h14p11p7h11h14-\13p10----10h13h16p13p10h13h16--| 
|-----5-----------------------7---------------------------11-----------------------| 
|----------------------------------------------------------------------------------| 
|----------------------------------------------------------------------------------| 
|----------------------------------------------------------------------------------| 
|----------------------------------------------------------------------------------| 

|-17-17-17-17-17-17-17-17-17-17-17-17-| 
|-------------------------------------| 
|-------------------------------------| 
|-------------------------------------| 
|-------------------------------------| 
|-------------------------------------| 

|-17-17-17-17-17-17-17-17-|-17-17-17-17-17-(17)\------*| 
|-------------------------|---------------------------*| 
|-------------------------|---------------------------*| 
|-------------------------|---------------------------*| 
|-------------------------|---------------------------*| 
|-------------------------|---------------------------*| 
		  

See also:

tabs Red Hot Chili Peppers - I Could Have Lied tabs Ben Harper - Diamonds on inside tabs Red Hot Chili Peppers - By The Way (ver. 2) tabs Audioslave - Show Me How To Live tabs Incubus - 11 A.M. tabs Red Hot Chili Peppers - Scar Tissue
e-chords

Other versions:

tabs Bumblefoot - Guitars Suck
auto scroll beats size up size down change color hide chords drawings
tab show chords e-chords YouTube Clip e-chords hide all tabs e-chords go to top tab

share