Bullet for my Valentine

Raising Hell

Bullet for my Valentine

tabs Expert expert

by  BRUNBLAZKOWSKI

save to print version add songbook text version e-mail correct tuner
chordsukulelecavacokeyboardtabbassdrumsharmonicaflute Guitar Pro
close

there isn't a video lesson for this song

chords

Raising Hell

	  		
Guitar 1 

     W                   W                   W                  
D||-------------------|-------------------|-------------------| 
A||-------------------|-------------------|-------------------| 
F||-------------------|-------------------|--3----------------| 
C||--2----------------|--L----------------|--2----------------| 
G||--2----------------|--L----------------|--1----------------| 
D||--0----------------|--L----------------|-------------------| 


           PM PM PM PM PM                                           
  H        E  S  S  E  E     W                   W                  
--------------------------|-------------------|-------------------| 
--------------------------|-------------------|-------------------| 
--L-----------------------|-------------------|-------------------| 
--L--------2--2--2--2--3--|--2----------------|--L----------------| 
--L--------2--2--2--2--3--|--2----------------|--L----------------| 
-----------0--0--0--2--3--|--0----------------|--L----------------| 


  W                   W                  
-------------------|-------------------| 
-------------------|-------------------| 
--3----------------|--3----------------| 
--2----------------|--2----------------| 
--1----------------|--3----------------| 
-------------------|-------------------| 


      PM PM PM PM PM PM     PM PM PM PM PM PM   
  S S S  S  S  S  S  S  S S S  S  S  S  S  S    
----------------------------------------------| 
----------------------------------------------| 
----------------------------------------------| 
----------------------------------------------| 
----------------------------------------------| 
--6-0-0--0--0--0--0--0--6-0-0--0--0--0--0--0--| 


      PM PM PM PM PM PM                   
  S S S  S  S  S  S  S  S S S S S S S S   
----------------------------------------| 
----------------------------------------| 
----------------------------------------| 
----------------------------------------| 
----------------------------------------| 
--6-0-0--0--0--0--0--0--6-0-5-0-3-0-5-0-| 


      PM PM PM PM PM PM     PM PM PM PM PM PM   
  S S S  S  S  S  S  S  S S S  S  S  S  S  S    
----------------------------------------------| 
----------------------------------------------| 
----------------------------------------------| 
----------------------------------------------| 
----------------------------------------------| 
--6-0-0--0--0--0--0--0--6-0-0--0--0--0--0--0--| 


      PM PM PM PM PM PM                   
  S S S  S  S  S  S  S  S S S S S S S S   
----------------------------------------| 
----------------------------------------| 
----------------------------------------| 
----------------------------------------| 
----------------------------------------| 
--6-0-0--0--0--0--0--0--6-0-5-0-3-0-5-0-| 


      PM PM PM PM PM PM     PM PM PM PM PM PM   
  S S S  S  S  S  S  S  S S S  S  S  S  S  S    
----------------------------------------------| 
----------------------------------------------| 
----------------------------------------------| 
----------------------------------------------| 
----------------------------------------------| 
--6-0-0--0--0--0--0--0--6-0-0--0--0--0--0--0--| 


      PM PM PM PM PM PM                   
  S S S  S  S  S  S  S  S S S S S S S S   
----------------------------------------| 
----------------------------------------| 
----------------------------------------| 
----------------------------------------| 
----------------------------------------| 
--6-0-0--0--0--0--0--0--6-0-5-0-3-0-5-0-| 


      PM PM PM PM PM PM     PM PM PM PM PM PM    PM  PM  PM   PM         
  S S S  S  S  S  S  S  S S S  S  S  S  S  S     E.  E.  Q    E  E  E    
----------------------------------------------|------------------------| 
----------------------------------------------|------------------------| 
----------------------------------------------|--3---3---3----3--3--3--| 
----------------------------------------------|--2---2---2----2--2--2--| 
----------------------------------------------|--1---1---1----1--3--3--| 
--6-0-0--0--0--0--0--0--6-0-0--0--0--0--0--0--|------------------------| 


      PM PM PM PM PM PM     PM PM PM PM PM PM   
  S S S  S  S  S  S  S  S S S  S  S  S  S  S    
----------------------------------------------| 
----------------------------------------------| 
----------------------------------------------| 
----------------------------------------------| 
----------------------------------------------| 
--6-0-0--0--0--0--0--0--6-0-0--0--0--0--0--0--| 


      PM PM PM PM PM PM                   
  S S S  S  S  S  S  S  S S S S S S S S   
----------------------------------------| 
----------------------------------------| 
----------------------------------------| 
----------------------------------------| 
----------------------------------------| 
--6-0-0--0--0--0--0--0--6-0-5-0-3-0-5-0-| 


      PM PM PM PM PM PM     PM PM PM PM PM PM   
  S S S  S  S  S  S  S  S S S  S  S  S  S  S    
----------------------------------------------| 
----------------------------------------------| 
----------------------------------------------| 
----------------------------------------------| 
----------------------------------------------| 
--6-0-0--0--0--0--0--0--6-0-0--0--0--0--0--0--| 


      PM PM PM PM PM PM                   
  S S S  S  S  S  S  S  S S S S S S S S   
----------------------------------------| 
----------------------------------------| 
----------------------------------------| 
----------------------------------------| 
----------------------------------------| 
--6-0-0--0--0--0--0--0--6-0-5-0-3-0-5-0-| 


      PM PM PM PM PM PM     PM PM PM PM PM PM   
  S S S  S  S  S  S  S  S S S  S  S  S  S  S    
----------------------------------------------| 
----------------------------------------------| 
----------------------------------------------| 
----------------------------------------------| 
----------------------------------------------| 
--6-0-0--0--0--0--0--0--6-0-0--0--0--0--0--0--| 


      PM PM PM PM PM PM                   
  S S S  S  S  S  S  S  S S S S S S S S   
----------------------------------------| 
----------------------------------------| 
----------------------------------------| 
----------------------------------------| 
----------------------------------------| 
--6-0-0--0--0--0--0--0--6-0-5-0-3-0-5-0-| 


      PM PM PM PM PM PM     PM PM PM PM PM PM                            
  S S S  S  S  S  S  S  S S S  S  S  S  S  S     E.  E.  Q    E  E  E    
----------------------------------------------|------------------------| 
----------------------------------------------|------------------------| 
----------------------------------------------|--3---3---3----3--3--3--| 
----------------------------------------------|--3---3---3----3--2--2--| 
----------------------------------------------|--1---1---1----1--3--3--| 
--6-0-0--0--0--0--0--0--6-0-0--0--0--0--0--0--|------------------------| 


      PM PM PM PM PM PM     PM PM PM PM       
  S S S  S  S  S  S  S  S S S  S  S  S  S S   
--------------------------------------------| 
--------------------------------------------| 
--------------------------------------------| 
--------------------------------------------| 
--------------------------------------------| 
--6-0-0--0--0--0--0--0--6-0-0--0--0--0------| 


      PM PM PM PM PM PM                   
  S S S  S  S  S  S  S  S S S S S S S S   
----------------------------------------| 
----------------------------------------| 
----------------------------------------| 
----------------------------------------| 
----------------------------------------| 
------0--0--0--0--0--0--6-0-5-0-3-0-5-0-| 


      PM PM PM PM PM PM     PM PM PM PM       
  S S S  S  S  S  S  S  S S S  S  S  S  S S   
--------------------------------------------| 
--------------------------------------------| 
--------------------------------------------| 
--------------------------------------------| 
--------------------------------------------| 
--6-0-0--0--0--0--0--0--6-0-0--0--0--0------| 


      PM PM PM PM PM PM                   
  S S S  S  S  S  S  S  S S S S S S S S   
----------------------------------------| 
----------------------------------------| 
----------------------------------------| 
----------------------------------------| 
----------------------------------------| 
------0--0--0--0--0--0--6-0-5-0-3-0-5-0-| 


      PM PM PM PM PM PM     PM PM PM PM       
  S S S  S  S  S  S  S  S S S  S  S  S  S S   
--------------------------------------------| 
--------------------------------------------| 
--------------------------------------------| 
--------------------------------------------| 
--------------------------------------------| 
--6-0-0--0--0--0--0--0--6-0-0--0--0--0------| 


      PM PM PM PM PM PM                   
  S S S  S  S  S  S  S  S S S S S S S S   
----------------------------------------| 
----------------------------------------| 
----------------------------------------| 
----------------------------------------| 
----------------------------------------| 
------0--0--0--0--0--0--6-0-5-0-3-0-5-0-| 


      PM PM PM PM PM PM     PM PM PM PM PM PM                            
  S S S  S  S  S  S  S  S S S  S  S  S  S  S     E.  E.  Q    E  E  E    
----------------------------------------------|------------------------| 
----------------------------------------------|------------------------| 
----------------------------------------------|--3---3---3----3--3--3--| 
----------------------------------------------|--3---3---3----3--2--2--| 
----------------------------------------------|--1---1---1----1--3--3--| 
--6-0-0--0--0--0--0--0--6-0-0--0--0--0--0--0--|------------------------| 


      PM PM PM PM PM PM     PM PM PM PM PM PM   
  S S S  S  S  S  S  S  S S S  S  S  S  S  S    
----------------------------------------------| 
----------------------------------------------| 
----------------------------------------------| 
----------------------------------------------| 
----------------------------------------------| 
--6-0-0--0--0--0--0--0--6-0-0--0--0--0--0--0--| 


      PM PM PM PM PM PM                   
  S S S  S  S  S  S  S  S S S S S S S S   
----------------------------------------| 
----------------------------------------| 
----------------------------------------| 
----------------------------------------| 
----------------------------------------| 
--6-0-0--0--0--0--0--0--6-0-5-0-3-0-5-0-| 


      PM PM PM PM PM PM     PM PM PM PM PM PM   
  S S S  S  S  S  S  S  S S S  S  S  S  S  S    
----------------------------------------------| 
----------------------------------------------| 
----------------------------------------------| 
----------------------------------------------| 
----------------------------------------------| 
--6-0-0--0--0--0--0--0--6-0-0--0--0--0--0--0--| 


      PM PM PM PM PM PM                   
  S S S  S  S  S  S  S  S S S S S S S S   
----------------------------------------| 
----------------------------------------| 
----------------------------------------| 
----------------------------------------| 
----------------------------------------| 
--6-0-0--0--0--0--0--0--6-0-5-0-3-0-5-0-| 


      PM PM PM PM PM PM     PM PM PM PM PM PM   
  S S S  S  S  S  S  S  S S S  S  S  S  S  S    
----------------------------------------------| 
----------------------------------------------| 
----------------------------------------------| 
----------------------------------------------| 
----------------------------------------------| 
--6-0-0--0--0--0--0--0--6-0-0--0--0--0--0--0--| 


      PM PM PM PM PM PM                   
  S S S  S  S  S  S  S  S S S S S S S S   
----------------------------------------| 
----------------------------------------| 
----------------------------------------| 
----------------------------------------| 
----------------------------------------| 
--6-0-0--0--0--0--0--0--6-0-5-0-3-0-5-0-| 


      PM PM PM PM PM PM     PM PM PM PM PM PM                            
  S S S  S  S  S  S  S  S S S  S  S  S  S  S     E.  E.  Q    E  E  E    
----------------------------------------------|------------------------| 
----------------------------------------------|------------------------| 
----------------------------------------------|--3---3---3----3--3--3--| 
----------------------------------------------|--3---3---3----3--2--2--| 
----------------------------------------------|--1---1---1----1--3--3--| 
--6-0-0--0--0--0--0--0--6-0-0--0--0--0--0--0--|------------------------| 


  PM PM PM PM     PM PM PM PM     PM PM                           
  S  S  S  S  S S S  S  S  S  S S S  S  S S    W                  
--------------------------------------------|-------------------| 
--------------------------------------------|-------------------| 
--------------------------------------------|-------------------| 
--2--2--2--2------2--2--2--2------2--2------|--2----------------| 
--2--2--2--2------2--2--2--2------2--2------|--2----------------| 
--0--0--0--0------0--0--0--0------0--0------|--0----------------| 


  W                   W                   W                   W                  
-------------------|-------------------|-------------------|-------------------| 
-------------------|-------------------|-------------------|-------------------| 
-------------------|-------------------|-------------------|--4----------------| 
--L----------------|--5----------------|--L----------------|--4----------------| 
--L----------------|--5----------------|--L----------------|--2----------------| 
--L----------------|--3----------------|--L----------------|-------------------| 


                PM PM                                                     
  H        Q    E  E     E.  E.  E  E.  E.  E     E.  E.  E  E.  E.  E    
----------------------|------------------------|------------------------| 
----------------------|------------------------|------------------------| 
--L--------L----2--4--|--5---5---5--5---5---5--|--7---7---7--7---7---7--| 
--L--------L----2--4--|--5---5---5--5---5---5--|--7---7---7--7---7---7--| 
--L--------L----0--2--|--3---3---3--3---3---3--|--5---5---5--5---5---5--| 
----------------------|------------------------|------------------------| 


  W                   W                   W                   W                  
-------------------|-------------------|-------------------|-------------------| 
-------------------|-------------------|-------------------|-------------------| 
-------------------|-------------------|-------------------|-------------------| 
--2----------------|--L----------------|--5----------------|--L----------------| 
--2----------------|--L----------------|--5----------------|--L----------------| 
--0----------------|--L----------------|--3----------------|--L----------------| 


                                    PM PM                            
  W                   H        Q    E  E     E.  E.  E  E.  E.  E    
-------------------|----------------------|------------------------| 
-------------------|----------------------|------------------------| 
--4----------------|--L--------L----2--4--|--5---5---5--5---5---5--| 
--4----------------|--L--------L----2--4--|--5---5---5--5---5---5--| 
--2----------------|--L--------L----0--2--|--3---3---3--3---3---3--| 
-------------------|----------------------|------------------------| 


                               PM PM PM PM PM PM     PM PM PM PM PM PM   
  E.  E.  E  E.  E.  E     S S S  S  S  S  S  S  S S S  S  S  S  S  S    
------------------------|----------------------------------------------| 
------------------------|----------------------------------------------| 
--7---7---7--7---7---7--|----------------------------------------------| 
--7---7---7--7---7---7--|----------------------------------------------| 
--5---5---5--5---5---5--|----------------------------------------------| 
------------------------|--6-0-0--0--0--0--0--0--6-0-0--0--0--0--0--0--| 


      PM PM PM PM PM PM                   
  S S S  S  S  S  S  S  S S S S S S S S   
----------------------------------------| 
----------------------------------------| 
----------------------------------------| 
----------------------------------------| 
----------------------------------------| 
--6-0-0--0--0--0--0--0--6-0-5-0-3-0-5-0-| 


      PM PM PM PM PM PM     PM PM PM PM PM PM    PM  PM  PM   PM         
  S S S  S  S  S  S  S  S S S  S  S  S  S  S     E.  E.  Q    E  E  E    
----------------------------------------------|------------------------| 
----------------------------------------------|------------------------| 
----------------------------------------------|--3---3---3----3--3--3--| 
----------------------------------------------|--2---2---2----2--2--2--| 
----------------------------------------------|--1---1---1----1--3--3--| 
--6-0-0--0--0--0--0--0--6-0-0--0--0--0--0--0--|------------------------| 


      PM PM PM PM PM PM     PM PM PM PM       
  S S S  S  S  S  S  S  S S S  S  S  S  S S   
--------------------------------------------| 
--------------------------------------------| 
--------------------------------------------| 
--------------------------------------------| 
--------------------------------------------| 
--6-0-0--0--0--0--0--0--6-0-0--0--0--0------| 


      PM PM PM PM PM PM                   
  S S S  S  S  S  S  S  S S S S S S S S   
----------------------------------------| 
----------------------------------------| 
----------------------------------------| 
----------------------------------------| 
----------------------------------------| 
------0--0--0--0--0--0--6-0-5-0-3-0-5-0-| 


      PM PM PM PM PM PM     PM PM PM PM       
  S S S  S  S  S  S  S  S S S  S  S  S  S S   
--------------------------------------------| 
--------------------------------------------| 
--------------------------------------------| 
--------------------------------------------| 
--------------------------------------------| 
--6-0-0--0--0--0--0--0--6-0-0--0--0--0------| 


      PM PM PM PM PM PM                   
  S S S  S  S  S  S  S  S S S S S S S S   
----------------------------------------| 
----------------------------------------| 
----------------------------------------| 
----------------------------------------| 
----------------------------------------| 
------0--0--0--0--0--0--6-0-5-0-3-0-5-0-| 


      PM PM PM PM PM PM     PM PM PM PM       
  S S S  S  S  S  S  S  S S S  S  S  S  S S   
--------------------------------------------| 
--------------------------------------------| 
--------------------------------------------| 
--------------------------------------------| 
--------------------------------------------| 
--6-0-0--0--0--0--0--0--6-0-0--0--0--0------| 


      PM PM PM PM PM PM                   
  S S S  S  S  S  S  S  S S S S S S S S   
----------------------------------------| 
----------------------------------------| 
----------------------------------------| 
----------------------------------------| 
----------------------------------------| 
------0--0--0--0--0--0--6-0-5-0-3-0-5-0-| 


      PM PM PM PM PM PM     PM PM PM PM PM PM                            
  S S S  S  S  S  S  S  S S S  S  S  S  S  S     E.  E.  Q    E  E  E    
----------------------------------------------|------------------------| 
----------------------------------------------|------------------------| 
----------------------------------------------|--3---3---3----3--3--3--| 
----------------------------------------------|--3---3---3----3--2--2--| 
----------------------------------------------|--1---1---1----1--3--3--| 
--6-0-0--0--0--0--0--0--6-0-0--0--0--0--0--0--|------------------------| 


      PM PM PM PM PM PM     PM PM PM PM PM PM   
  S S S  S  S  S  S  S  S S S  S  S  S  S  S    
----------------------------------------------| 
----------------------------------------------| 
----------------------------------------------| 
----------------------------------------------| 
----------------------------------------------| 
--6-0-0--0--0--0--0--0--6-0-0--0--0--0--0--0--| 


      PM PM PM PM PM PM                   
  S S S  S  S  S  S  S  S S S S S S S S   
----------------------------------------| 
----------------------------------------| 
----------------------------------------| 
----------------------------------------| 
----------------------------------------| 
--6-0-0--0--0--0--0--0--6-0-5-0-3-0-5-0-| 


      PM PM PM PM PM PM     PM PM PM PM PM PM   
  S S S  S  S  S  S  S  S S S  S  S  S  S  S    
----------------------------------------------| 
----------------------------------------------| 
----------------------------------------------| 
----------------------------------------------| 
----------------------------------------------| 
--6-0-0--0--0--0--0--0--6-0-0--0--0--0--0--0--| 


      PM PM PM PM PM PM                   
  S S S  S  S  S  S  S  S S S S S S S S   
----------------------------------------| 
----------------------------------------| 
----------------------------------------| 
----------------------------------------| 
----------------------------------------| 
--6-0-0--0--0--0--0--0--6-0-5-0-3-0-5-0-| 


      PM PM PM PM PM PM     PM PM PM PM PM PM   
  S S S  S  S  S  S  S  S S S  S  S  S  S  S    
----------------------------------------------| 
----------------------------------------------| 
----------------------------------------------| 
----------------------------------------------| 
----------------------------------------------| 
--6-0-0--0--0--0--0--0--6-0-0--0--0--0--0--0--| 


      PM PM PM PM PM PM                   
  S S S  S  S  S  S  S  S S S S S S S S   
----------------------------------------| 
----------------------------------------| 
----------------------------------------| 
----------------------------------------| 
----------------------------------------| 
--6-0-0--0--0--0--0--0--6-0-5-0-3-0-5-0-| 


      PM PM PM PM PM PM     PM PM PM PM PM PM                            
  S S S  S  S  S  S  S  S S S  S  S  S  S  S     E.  E.  Q    E  E  E    
----------------------------------------------|------------------------| 
----------------------------------------------|------------------------| 
----------------------------------------------|--3---3---3----3--3--3--| 
----------------------------------------------|--3---3---3----3--2--2--| 
----------------------------------------------|--1---1---1----1--3--3--| 
--6-0-0--0--0--0--0--0--6-0-0--0--0--0--0--0--|------------------------| 


  PM PM PM PM     PM PM PM PM     PM PM       
  S  S  S  S  S S S  S  S  S  S S S  S  S S   
--------------------------------------------| 
--------------------------------------------| 
--------------------------------------------| 
--2--2--2--2------2--2--2--2------2--2------| 
--2--2--2--2------2--2--2--2------2--2------| 
--0--0--0--0------0--0--0--0------0--0------| 


  PM PM PM PM     PM PM PM PM     PM PM                           
  S  S  S  S  S S S  S  S  S  S S S  S  S S    W                  
--------------------------------------------|-------------------| 
--------------------------------------------|-------------------| 
--------------------------------------------|-------------------| 
--2--2--2--2------2--2--2--2------2--2------|--2----------------| 
--2--2--2--2------2--2--2--2------2--2------|--2----------------| 
--0--0--0--0------0--0--0--0------0--0------|--0----------------| 


  W                   W                   W                   W                  
-------------------|-------------------|-------------------|-------------------| 
-------------------|-------------------|-------------------|-------------------| 
-------------------|-------------------|-------------------|--4----------------| 
--L----------------|--5----------------|--L----------------|--4----------------| 
--L----------------|--5----------------|--L----------------|--2----------------| 
--L----------------|--3----------------|--L----------------|-------------------| 


                PM PM                                                     
  H        Q    E  E     E.  E.  E  E.  E.  E     E.  E.  E  E.  E.  E    
----------------------|------------------------|------------------------| 
----------------------|------------------------|------------------------| 
--L--------L----2--4--|--5---5---5--5---5---5--|--7---7---7--7---7---7--| 
--L--------L----2--4--|--5---5---5--5---5---5--|--7---7---7--7---7---7--| 
--L--------L----0--2--|--3---3---3--3---3---3--|--5---5---5--5---5---5--| 
----------------------|------------------------|------------------------| 


  W                   W                   W                   W                  
-------------------|-------------------|-------------------|-------------------| 
-------------------|-------------------|-------------------|-------------------| 
-------------------|-------------------|-------------------|-------------------| 
--2----------------|--L----------------|--5----------------|--L----------------| 
--2----------------|--L----------------|--5----------------|--L----------------| 
--0----------------|--L----------------|--3----------------|--L----------------| 


                                    PM PM                            
  W                   H        Q    E  E     E.  E.  E  E.  E.  E    
-------------------|----------------------|------------------------| 
-------------------|----------------------|------------------------| 
--4----------------|--L--------L----2--4--|--5---5---5--5---5---5--| 
--4----------------|--L--------L----2--4--|--5---5---5--5---5---5--| 
--2----------------|--L--------L----0--2--|--3---3---3--3---3---3--| 
-------------------|----------------------|------------------------| 


                               PM PM PM PM PM PM     PM PM PM PM PM PM   
  E.  E.  E  E.  E.  E     S S S  S  S  S  S  S  S S S  S  S  S  S  S    
------------------------|----------------------------------------------| 
------------------------|----------------------------------------------| 
--7---7---7--7---7---7--|----------------------------------------------| 
--7---7---7--7---7---7--|----------------------------------------------| 
--5---5---5--5---5---5--|----------------------------------------------| 
------------------------|--6-0-0--0--0--0--0--0--6-0-0--0--0--0--0--0--| 


      PM PM PM PM PM PM                   
  S S S  S  S  S  S  S  S S S S S S S S   
----------------------------------------| 
----------------------------------------| 
----------------------------------------| 
----------------------------------------| 
----------------------------------------| 
--6-0-0--0--0--0--0--0--6-0-5-0-3-0-5-0-| 


      PM PM PM PM PM PM     PM PM PM PM PM PM   
  S S S  S  S  S  S  S  S S S  S  S  S  S  S    
----------------------------------------------| 
----------------------------------------------| 
----------------------------------------------| 
----------------------------------------------| 
----------------------------------------------| 
--6-0-0--0--0--0--0--0--6-0-0--0--0--0--0--0--| 


      PM PM PM PM PM PM                   
  S S S  S  S  S  S  S  S S S S S S S S   
----------------------------------------| 
----------------------------------------| 
----------------------------------------| 
----------------------------------------| 
----------------------------------------| 
--6-0-0--0--0--0--0--0--6-0-5-0-3-0-5-0-| 


      PM PM PM PM PM PM     PM PM PM PM PM PM   
  S S S  S  S  S  S  S  S S S  S  S  S  S  S    
----------------------------------------------| 
----------------------------------------------| 
----------------------------------------------| 
----------------------------------------------| 
----------------------------------------------| 
--6-0-0--0--0--0--0--0--6-0-0--0--0--0--0--0--| 


      PM PM PM PM PM PM                   
  S S S  S  S  S  S  S  S S S S S S S S   
----------------------------------------| 
----------------------------------------| 
----------------------------------------| 
----------------------------------------| 
----------------------------------------| 
--6-0-0--0--0--0--0--0--6-0-5-0-3-0-5-0-| 


      PM PM PM PM PM PM     PM PM PM PM PM PM        
  S S S  S  S  S  S  S  S S S  S  S  S  S  S         
----------------------------------------------|----| 
----------------------------------------------|----| 
----------------------------------------------|----| 
----------------------------------------------|----| 
----------------------------------------------|----| 
--6-0-0--0--0--0--0--0--6-0-0--0--0--0--0--0--|----| 


      PM PM PM PM PM PM     PM PM PM PM PM PM   
  S S S  S  S  S  S  S  S S S  S  S  S  S  S    
----------------------------------------------| 
----------------------------------------------| 
----------------------------------------------| 
----------------------------------------------| 
----------------------------------------------| 
--6-0-0--0--0--0--0--0--6-0-0--0--0--0--0--0--| 


      PM PM PM PM PM PM PM PM PM PM PM   
  S S S  S  S  S  S  S  E  S  E  S  E    
---------------------------------------| 
---------------------------------------| 
---------------------------------------| 
------------------------5--5--7--7--8--| 
------------------------5--5--7--7--8--| 
--6-0-0--0--0--0--0--0--3--3--5--5--6--| 


      PM PM PM PM PM PM     PM PM PM PM PM PM                            
  S S S  S  S  S  S  S  S S S  S  S  S  S  S     E.  E.  E.  E.  E  E    
----------------------------------------------|------------------------| 
----------------------------------------------|------------------------| 
----------------------------------------------|------------------------| 
----------------------------------------------|--7---5---7---8---7--5--| 
----------------------------------------------|--7---5---7---8---7--5--| 
--6-0-0--0--0--0--0--0--6-0-0--0--0--0--0--0--|--5---3---5---6---5--3--| 


      PM PM PM PM PM PM     PM PM PM PM PM PM   
  S S S  S  S  S  S  S  S S S  S  S  S  S  S    
----------------------------------------------| 
----------------------------------------------| 
----------------------------------------------| 
----------------------------------------------| 
----------------------------------------------| 
--6-0-0--0--0--0--0--0--6-0-0--0--0--0--0--0--| 


      PM PM PM PM PM PM PM PM PM PM PM   
  S S S  S  S  S  S  S  E  S  E  S  E    
---------------------------------------| 
---------------------------------------| 
---------------------------------------| 
------------------------5--5--7--7--8--| 
------------------------5--5--7--7--8--| 
--6-0-0--0--0--0--0--0--3--3--5--5--6--| 


      PM PM PM PM PM PM     PM PM PM PM PM PM                            
  S S S  S  S  S  S  S  S S S  S  S  S  S  S     E.  E.  E.  E.  E  E    
----------------------------------------------|------------------------| 
----------------------------------------------|------------------------| 
----------------------------------------------|------------------------| 
----------------------------------------------|--7---5---7---8---7--5--| 
----------------------------------------------|--7---5---7---8---7--5--| 
--6-0-0--0--0--0--0--0--6-0-0--0--0--0--0--0--|--5---3---5---6---5--3--| 


  E  E  E  E  E  E  E  E     E.  E.  E.  E.  E  E    
--------------------------|------------------------| 
--------------------------|------------------------| 
--------------------------|------------------------| 
--2-----2-----2-----2-----|--7---5---7---8---7--5--| 
--2-----2-----2-----0-----|--7---5---7---8---7--5--| 
--0-----0-----0-----0-----|--5---3---5---6---5--3--| 


      PM PM PM PM PM PM     PM PM PM PM PM PM   
  S S S  S  S  S  S  S  S S S  S  S  S  S  S    
----------------------------------------------| 
----------------------------------------------| 
----------------------------------------------| 
----------------------------------------------| 
----------------------------------------------| 
--6-0-0--0--0--0--0--0--6-0-0--0--0--0--0--0--| 


      PM PM PM PM PM PM PM PM PM PM PM   
  S S S  S  S  S  S  S  E  S  E  S  E    
---------------------------------------| 
---------------------------------------| 
---------------------------------------| 
------------------------5--5--7--7--8--| 
------------------------5--5--7--7--8--| 
--6-0-0--0--0--0--0--0--3--3--5--5--6--| 


      PM PM PM PM PM PM     PM PM PM PM PM PM                            
  S S S  S  S  S  S  S  S S S  S  S  S  S  S     E.  E.  E.  E.  E  E    
----------------------------------------------|------------------------| 
----------------------------------------------|------------------------| 
----------------------------------------------|------------------------| 
----------------------------------------------|--7---5---7---8---7--5--| 
----------------------------------------------|--7---5---7---8---7--5--| 
--6-0-0--0--0--0--0--0--6-0-0--0--0--0--0--0--|--5---3---5---6---5--3--| 


                           PM  PM  PM  PM  PM PM                              
  E.  E.  E.  E.  E  E     E.  E.  E.  E.  E  E     E  E  E  E  E  E  E  E    
------------------------|------------------------|--------------------------| 
------------------------|------------------------|--------------------------| 
------------------------|------------------------|--------------------------| 
--7---5---7---8---7--5--|--7---5---7---8---7--5--|--2-----------------------| 
--7---5---7---8---7--5--|--7---5---7---8---7--5--|--2-----------------------| 
--5---3---5---6---5--3--|--5---3---5---6---5--3--|--0-----------------------| 


   W                   W                   W                  
--------------------|-------------------|-------------------| 
--------------------|-------------------|-------------------| 
--------------------|-------------------|--4----------------| 
--/5----------------|--L----------------|--4----------------| 
--/5----------------|--L----------------|--2----------------| 
--/3----------------|--L----------------|-------------------| 


                PM PM                                                     
  H        Q    E  E     E.  E.  E  E.  E.  E     E.  E.  E  E.  E.  E    
----------------------|------------------------|------------------------| 
----------------------|------------------------|------------------------| 
--L--------L----2--4--|--5---5---5--5---5---5--|--7---7---7--7---7---7--| 
--L--------L----2--4--|--5---5---5--5---5---5--|--7---7---7--7---7---7--| 
--L--------L----0--2--|--3---3---3--3---3---3--|--5---5---5--5---5---5--| 
----------------------|------------------------|------------------------| 


  W                   W                   W                   W                  
-------------------|-------------------|-------------------|-------------------| 
-------------------|-------------------|-------------------|-------------------| 
-------------------|-------------------|-------------------|-------------------| 
--2----------------|--L----------------|--5----------------|--L----------------| 
--2----------------|--L----------------|--5----------------|--L----------------| 
--0----------------|--L----------------|--3----------------|--L----------------| 


                                    PM PM                            
  W                   H        Q    E  E     E.  E.  E  E.  E.  E    
-------------------|----------------------|------------------------| 
-------------------|----------------------|------------------------| 
--4----------------|--L--------L----2--4--|--5---5---5--5---5---5--| 
--4----------------|--L--------L----2--4--|--5---5---5--5---5---5--| 
--2----------------|--L--------L----0--2--|--3---3---3--3---3---3--| 
-------------------|----------------------|------------------------| 


  E.  E.  E  E.  E.  E     W                   W                  
------------------------|-------------------|-------------------| 
------------------------|-------------------|-------------------| 
--7---7---7--7---7---7--|-------------------|-------------------| 
--7---7---7--7---7---7--|--2----------------|--L----------------| 
--5---5---5--5---5---5--|--2----------------|--L----------------| 
------------------------|--0----------------|--L----------------| 


  W                   W                   W                  
-------------------|-------------------|-------------------| 
-------------------|-------------------|-------------------| 
-------------------|-------------------|--4----------------| 
--5----------------|--L----------------|--4----------------| 
--5----------------|--L----------------|--2----------------| 
--3----------------|--L----------------|-------------------| 


                PM PM                                                     
  H        Q    E  E     E.  E.  E  E.  E.  E     E.  E.  E  E.  E.  E    
----------------------|------------------------|------------------------| 
----------------------|------------------------|------------------------| 
--L--------L----2--4--|--5---5---5--5---5---5--|--7---7---7--7---7---7--| 
--L--------L----2--4--|--5---5---5--5---5---5--|--7---7---7--7---7---7--| 
--L--------L----0--2--|--3---3---3--3---3---3--|--5---5---5--5---5---5--| 
----------------------|------------------------|------------------------| 


  W                   W                   W                   W                  
-------------------|-------------------|-------------------|-------------------| 
-------------------|-------------------|-------------------|-------------------| 
-------------------|-------------------|-------------------|-------------------| 
--2----------------|--L----------------|--5----------------|--L----------------| 
--2----------------|--L----------------|--5----------------|--L----------------| 
--0----------------|--L----------------|--3----------------|--L----------------| 


                                    PM PM                            
  W                   H        Q    E  E     E.  E.  E  E.  E.  E    
-------------------|----------------------|------------------------| 
-------------------|----------------------|------------------------| 
--4----------------|--L--------L----2--4--|--5---5---5--5---5---5--| 
--4----------------|--L--------L----2--4--|--5---5---5--5---5---5--| 
--2----------------|--L--------L----0--2--|--3---3---3--3---3---3--| 
-------------------|----------------------|------------------------| 


  E.  E.  E  E.  E.  E     W                   W                  
------------------------|-------------------|-------------------| 
------------------------|-------------------|-------------------| 
--7---7---7--7---7---7--|-------------------|-------------------| 
--7---7---7--7---7---7--|--2----------------|--L----------------| 
--5---5---5--5---5---5--|--2----------------|--L----------------| 
------------------------|--0----------------|--L----------------| 


  W                   W                   
-------------------|-------------------|| 
-------------------|-------------------|| 
-------------------|-------------------|| 
--L----------------|--L----------------|| 
--L----------------|--L----------------|| 
--L----------------|--L----------------|| 


Guitar 2 


       \1/                                     \1/                
       W                   W                   W                  
D||---------------------|-------------------|-------------------| 
A||--<>5----------------|--L----------------|-------------------| 
F||---------------------|-------------------|-------------------| 
C||---------------------|-------------------|--2----------------| 
G||---------------------|-------------------|-------------------| 
D||---------------------|-------------------|-------------------| 


                       /1                   \1/                
  W                    W                    W                  
-------------------|--------------------|--------------------| 
-------------------|--18----------------|--18----------------| 
-------------------|--------------------|--------------------| 
--L----------------|--------------------|--------------------| 
-------------------|--------------------|--------------------| 
-------------------|--------------------|--------------------| 


   \1/                  \1/                 \1/                
   W                    W                   W                  
--------------------|--------------------|-------------------| 
--18----------------|--17----------------|-------------------| 
--------------------|--------------------|-------------------| 
--------------------|--------------------|-------------------| 
--------------------|--------------------|-------------------| 
--------------------|--------------------|--0----------------| 


  W                   W                   W                   W                  
-------------------|-------------------|-------------------|-------------------| 
-------------------|-------------------|-------------------|-------------------| 
-------------------|-------------------|-------------------|-------------------| 
-------------------|-------------------|-------------------|-------------------| 
-------------------|-------------------|-------------------|-------------------| 
--L----------------|--L----------------|--L----------------|--L----------------| 


                                             \1/       \1/           
  W                   W                      Q.        H        E    
-------------------|-------------------|------------<>16--------L--| 
-------------------|-------------------|--<>16---------------------| 
-------------------|-------------------|---------------------------| 
-------------------|-------------------|---------------------------| 
-------------------|-------------------|---------------------------| 
--L----------------|--L----------------|---------------------------| 


      PM PM PM PM PM PM     PM PM PM PM PM PM   
  S S S  S  S  S  S  S  S S S  S  S  S  S  S    
----------------------------------------------| 
----------------------------------------------| 
----------------------------------------------| 
----------------------------------------------| 
----------------------------------------------| 
--6-0-0--0--0--0--0--0--6-0-0--0--0--0--0--0--| 


      PM PM PM PM PM PM                   
  S S S  S  S  S  S  S  S S S S S S S S   
----------------------------------------| 
----------------------------------------| 
----------------------------------------| 
----------------------------------------| 
----------------------------------------| 
--6-0-0--0--0--0--0--0--6-0-5-0-3-0-5-0-| 


      PM PM PM PM PM PM     PM PM PM PM PM PM   
  S S S  S  S  S  S  S  S S S  S  S  S  S  S    
----------------------------------------------| 
----------------------------------------------| 
----------------------------------------------| 
----------------------------------------------| 
----------------------------------------------| 
--6-0-0--0--0--0--0--0--6-0-0--0--0--0--0--0--| 


      PM PM PM PM PM PM                   
  S S S  S  S  S  S  S  S S S S S S S S   
----------------------------------------| 
----------------------------------------| 
----------------------------------------| 
----------------------------------------| 
----------------------------------------| 
--6-0-0--0--0--0--0--0--6-0-5-0-3-0-5-0-| 


      PM PM PM PM PM PM     PM PM PM PM PM PM   
  S S S  S  S  S  S  S  S S S  S  S  S  S  S    
----------------------------------------------| 
----------------------------------------------| 
----------------------------------------------| 
----------------------------------------------| 
----------------------------------------------| 
--6-0-0--0--0--0--0--0--6-0-0--0--0--0--0--0--| 


      PM PM PM PM PM PM                   
  S S S  S  S  S  S  S  S S S S S S S S   
----------------------------------------| 
----------------------------------------| 
----------------------------------------| 
----------------------------------------| 
----------------------------------------| 
--6-0-0--0--0--0--0--0--6-0-5-0-3-0-5-0-| 


      PM PM PM PM PM PM     PM PM PM PM PM PM                            
  S S S  S  S  S  S  S  S S S  S  S  S  S  S     E.  E.  Q    E  E  E    
----------------------------------------------|------------------------| 
----------------------------------------------|------------------------| 
----------------------------------------------|--3---3---3----3--3--3--| 
----------------------------------------------|--3---3---3----3--2--2--| 
----------------------------------------------|--1---1---1----1--3--3--| 
--6-0-0--0--0--0--0--0--6-0-0--0--0--0--0--0--|------------------------| 


      PM PM PM PM PM PM     PM PM PM PM       
  S S S  S  S  S  S  S  S S S  S  S  S  S S   
--------------------------------------------| 
--------------------------------------------| 
--------------------------------------------| 
--------------------------------------------| 
--------------------------------------------| 
--6-0-0--0--0--0--0--0--6-0-0--0--0--0------| 


      PM PM PM PM PM PM                   
  S S S  S  S  S  S  S  S S S S S S S S   
----------------------------------------| 
----------------------------------------| 
----------------------------------------| 
----------------------------------------| 
----------------------------------------| 
------0--0--0--0--0--0--6-0-5-0-3-0-5-0-| 


      PM PM PM PM PM PM     PM PM PM PM       
  S S S  S  S  S  S  S  S S S  S  S  S  S S   
--------------------------------------------| 
--------------------------------------------| 
--------------------------------------------| 
--------------------------------------------| 
--------------------------------------------| 
--6-0-0--0--0--0--0--0--6-0-0--0--0--0------| 


      PM PM PM PM PM PM                   
  S S S  S  S  S  S  S  S S S S S S S S   
----------------------------------------| 
----------------------------------------| 
----------------------------------------| 
----------------------------------------| 
----------------------------------------| 
------0--0--0--0--0--0--6-0-5-0-3-0-5-0-| 


      PM PM PM PM PM PM     PM PM PM PM       
  S S S  S  S  S  S  S  S S S  S  S  S  S S   
--------------------------------------------| 
--------------------------------------------| 
--------------------------------------------| 
--------------------------------------------| 
--------------------------------------------| 
--6-0-0--0--0--0--0--0--6-0-0--0--0--0------| 


      PM PM PM PM PM PM                   
  S S S  S  S  S  S  S  S S S S S S S S   
----------------------------------------| 
----------------------------------------| 
----------------------------------------| 
----------------------------------------| 
----------------------------------------| 
------0--0--0--0--0--0--6-0-5-0-3-0-5-0-| 


      PM PM PM PM PM PM     PM PM PM PM PM PM                            
  S S S  S  S  S  S  S  S S S  S  S  S  S  S     E.  E.  Q    E  E  E    
----------------------------------------------|------------------------| 
----------------------------------------------|------------------------| 
----------------------------------------------|--3---3---3----3--3--3--| 
----------------------------------------------|--3---3---3----3--2--2--| 
----------------------------------------------|--1---1---1----1--3--3--| 
--6-0-0--0--0--0--0--0--6-0-0--0--0--0--0--0--|------------------------| 


      PM PM PM PM PM PM     PM PM PM PM PM PM   
  S S S  S  S  S  S  S  S S S  S  S  S  S  S    
----------------------------------------------| 
----------------------------------------------| 
----------------------------------------------| 
----------------------------------------------| 
----------------------------------------------| 
--6-0-0--0--0--0--0--0--6-0-0--0--0--0--0--0--| 


      PM PM PM PM PM PM                   
  S S S  S  S  S  S  S  S S S S S S S S   
----------------------------------------| 
----------------------------------------| 
----------------------------------------| 
----------------------------------------| 
----------------------------------------| 
--6-0-0--0--0--0--0--0--6-0-5-0-3-0-5-0-| 


      PM PM PM PM PM PM     PM PM PM PM PM PM   
  S S S  S  S  S  S  S  S S S  S  S  S  S  S    
----------------------------------------------| 
----------------------------------------------| 
----------------------------------------------| 
----------------------------------------------| 
----------------------------------------------| 
--6-0-0--0--0--0--0--0--6-0-0--0--0--0--0--0--| 


      PM PM PM PM PM PM                   
  S S S  S  S  S  S  S  S S S S S S S S   
----------------------------------------| 
----------------------------------------| 
----------------------------------------| 
----------------------------------------| 
----------------------------------------| 
--6-0-0--0--0--0--0--0--6-0-5-0-3-0-5-0-| 


      PM PM PM PM PM PM     PM PM PM PM PM PM   
  S S S  S  S  S  S  S  S S S  S  S  S  S  S    
----------------------------------------------| 
----------------------------------------------| 
----------------------------------------------| 
----------------------------------------------| 
----------------------------------------------| 
--6-0-0--0--0--0--0--0--6-0-0--0--0--0--0--0--| 


      PM PM PM PM PM PM                   
  S S S  S  S  S  S  S  S S S S S S S S   
----------------------------------------| 
----------------------------------------| 
----------------------------------------| 
----------------------------------------| 
----------------------------------------| 
--6-0-0--0--0--0--0--0--6-0-5-0-3-0-5-0-| 


      PM PM PM PM PM PM     PM PM PM PM PM PM                            
  S S S  S  S  S  S  S  S S S  S  S  S  S  S     E.  E.  Q    E  E  E    
----------------------------------------------|------------------------| 
----------------------------------------------|------------------------| 
----------------------------------------------|--3---3---3----3--3--3--| 
----------------------------------------------|--3---3---3----3--2--2--| 
----------------------------------------------|--1---1---1----1--3--3--| 
--6-0-0--0--0--0--0--0--6-0-0--0--0--0--0--0--|------------------------| 


  PM PM PM PM     PM PM PM PM     PM PM                                  
  S  S  S  S  S S S  S  S  S  S S S  S  S S     Q.      E   Q     Q      
--------------------------------------------|--------------------------| 
--------------------------------------------|----------10--------------| 
--------------------------------------------|--12----------11----12----| 
--2--2--2--2------2--2--2--2------2--2------|--------------------------| 
--2--2--2--2------2--2--2--2------2--2------|--------------------------| 
--0--0--0--0------0--0--0--0------0--0------|--------------------------| 


   E   Q.      Q     Q        Q.      Q.      Q       W                  
--------------------------|------------------------|-------------------| 
------10------------------|----------10------------|-------------------| 
---L----------12----11----|--12--------------12----|--L----------------| 
--------------------------|------------------------|-------------------| 
--------------------------|------------------------|-------------------| 
--------------------------|------------------------|-------------------| 


  Q.      Q.      Q       E   Q.      Q     Q       H        Q     E   E    
-----------------------|-------------------------|------------------------| 
-----------------------|-----10------------------|------------------------| 
--9------11------12----|--L----------12----11----|--9--------L----/9--11--| 
-----------------------|-------------------------|------------------------| 
-----------------------|-------------------------|------------------------| 
-----------------------|-------------------------|------------------------| 


   H          H            Q.      E   Q     Q        E   Q.      Q     Q      
-----------------------|--------------------------|--------------------------| 
-----------------------|----------10--------------|------10------------------| 
--11b--------11--------|--12----------11----12----|---L----------12----11----| 
-----------------------|--------------------------|--------------------------| 
-----------------------|--------------------------|--------------------------| 
-----------------------|--------------------------|--------------------------| 


   Q.      Q.      Q       W                   Q.      Q.      Q      
------------------------|-------------------|-----------------------| 
----------10------------|-------------------|-----------------------| 
--12--------------12----|--L----------------|--9------11------12----| 
------------------------|-------------------|-----------------------| 
------------------------|-------------------|-----------------------| 
------------------------|-------------------|-----------------------| 


  E   Q.      Q     Q       H        Q     E   E      H          H          
-------------------------|------------------------|-----------------------| 
-----10------------------|------------------------|-----------------------| 
--L----------12----11----|--9--------L----/9--11--|--11b--------11--------| 
-------------------------|------------------------|-----------------------| 
-------------------------|------------------------|-----------------------| 
-------------------------|------------------------|-----------------------| 


    \1/                                                        
    W                   W                   W                  
---------------------|-------------------|-------------------| 
---------------------|-------------------|-------------------| 
--<>7----------------|--L----------------|--L----------------| 
---------------------|-------------------|-------------------| 
---------------------|-------------------|-------------------| 
---------------------|-------------------|-------------------| 


     \1/       \1/                PM PM PM PM PM PM     PM PM PM PM       
     Q.        H        E     S S S  S  S  S  S  S  S S S  S  S  S  S S   
------------<>16--------L--|--------------------------------------------| 
--<>16---------------------|--------------------------------------------| 
---------------------------|--------------------------------------------| 
---------------------------|--------------------------------------------| 
---------------------------|--------------------------------------------| 
---------------------------|--6-0-0--0--0--0--0--0--6-0-0--0--0--0------| 


      PM PM PM PM PM PM                   
  S S S  S  S  S  S  S  S S S S S S S S   
----------------------------------------| 
----------------------------------------| 
----------------------------------------| 
----------------------------------------| 
----------------------------------------| 
------0--0--0--0--0--0--6-0-5-0-3-0-5-0-| 


      PM PM PM PM PM PM     PM PM PM PM       
  S S S  S  S  S  S  S  S S S  S  S  S  S S   
--------------------------------------------| 
--------------------------------------------| 
--------------------------------------------| 
--------------------------------------------| 
--------------------------------------------| 
--6-0-0--0--0--0--0--0--6-0-0--0--0--0------| 


      PM PM PM PM PM PM                   
  S S S  S  S  S  S  S  S S S S S S S S   
----------------------------------------| 
----------------------------------------| 
----------------------------------------| 
----------------------------------------| 
----------------------------------------| 
------0--0--0--0--0--0--6-0-5-0-3-0-5-0-| 


      PM PM PM PM PM PM     PM PM PM PM       
  S S S  S  S  S  S  S  S S S  S  S  S  S S   
--------------------------------------------| 
--------------------------------------------| 
--------------------------------------------| 
--------------------------------------------| 
--------------------------------------------| 
--6-0-0--0--0--0--0--0--6-0-0--0--0--0------| 


      PM PM PM PM PM PM                   
  S S S  S  S  S  S  S  S S S S S S S S   
----------------------------------------| 
----------------------------------------| 
----------------------------------------| 
----------------------------------------| 
----------------------------------------| 
------0--0--0--0--0--0--6-0-5-0-3-0-5-0-| 


      PM PM PM PM PM PM     PM PM PM PM PM PM                            
  S S S  S  S  S  S  S  S S S  S  S  S  S  S     E.  E.  Q    E  E  E    
----------------------------------------------|------------------------| 
----------------------------------------------|------------------------| 
----------------------------------------------|--3---3---3----3--3--3--| 
----------------------------------------------|--3---3---3----3--2--2--| 
----------------------------------------------|--1---1---1----1--3--3--| 
--6-0-0--0--0--0--0--0--6-0-0--0--0--0--0--0--|------------------------| 


      PM PM PM PM PM PM     PM PM PM PM PM PM   
  S S S  S  S  S  S  S  S S S  S  S  S  S  S    
----------------------------------------------| 
----------------------------------------------| 
----------------------------------------------| 
----------------------------------------------| 
----------------------------------------------| 
--6-0-0--0--0--0--0--0--6-0-0--0--0--0--0--0--| 


      PM PM PM PM PM PM                   
  S S S  S  S  S  S  S  S S S S S S S S   
----------------------------------------| 
----------------------------------------| 
----------------------------------------| 
----------------------------------------| 
----------------------------------------| 
--6-0-0--0--0--0--0--0--6-0-5-0-3-0-5-0-| 


      PM PM PM PM PM PM     PM PM PM PM PM PM   
  S S S  S  S  S  S  S  S S S  S  S  S  S  S    
----------------------------------------------| 
----------------------------------------------| 
----------------------------------------------| 
----------------------------------------------| 
----------------------------------------------| 
--6-0-0--0--0--0--0--0--6-0-0--0--0--0--0--0--| 


      PM PM PM PM PM PM                   
  S S S  S  S  S  S  S  S S S S S S S S   
----------------------------------------| 
----------------------------------------| 
----------------------------------------| 
----------------------------------------| 
----------------------------------------| 
--6-0-0--0--0--0--0--0--6-0-5-0-3-0-5-0-| 


      PM PM PM PM PM PM     PM PM PM PM PM PM   
  S S S  S  S  S  S  S  S S S  S  S  S  S  S    
----------------------------------------------| 
----------------------------------------------| 
----------------------------------------------| 
----------------------------------------------| 
----------------------------------------------| 
--6-0-0--0--0--0--0--0--6-0-0--0--0--0--0--0--| 


      PM PM PM PM PM PM                   
  S S S  S  S  S  S  S  S S S S S S S S   
----------------------------------------| 
----------------------------------------| 
----------------------------------------| 
----------------------------------------| 
----------------------------------------| 
--6-0-0--0--0--0--0--0--6-0-5-0-3-0-5-0-| 


      PM PM PM PM PM PM     PM PM PM PM PM PM                            
  S S S  S  S  S  S  S  S S S  S  S  S  S  S     E.  E.  Q    E  E  E    
----------------------------------------------|------------------------| 
----------------------------------------------|------------------------| 
----------------------------------------------|--3---3---3----3--3--3--| 
----------------------------------------------|--3---3---3----3--2--2--| 
----------------------------------------------|--1---1---1----1--3--3--| 
--6-0-0--0--0--0--0--0--6-0-0--0--0--0--0--0--|------------------------| 


  PM PM PM PM     PM PM PM PM     PM PM       
  S  S  S  S  S S S  S  S  S  S S S  S  S S   
--------------------------------------------| 
--------------------------------------------| 
--------------------------------------------| 
--2--2--2--2------2--2--2--2------2--2------| 
--2--2--2--2------2--2--2--2------2--2------| 
--0--0--0--0------0--0--0--0------0--0------| 


  PM PM PM PM     PM PM PM PM     PM PM                                  
  S  S  S  S  S S S  S  S  S  S S S  S  S S     Q.      E   Q     Q      
--------------------------------------------|--------------------------| 
--------------------------------------------|----------10--------------| 
--------------------------------------------|--12----------11----12----| 
--2--2--2--2------2--2--2--2------2--2------|--------------------------| 
--2--2--2--2------2--2--2--2------2--2------|--------------------------| 
--0--0--0--0------0--0--0--0------0--0------|--------------------------| 


   E   Q.      Q     Q        Q.      Q.      Q       W                  
--------------------------|------------------------|-------------------| 
------10------------------|----------10------------|-------------------| 
---L----------12----11----|--12--------------12----|--L----------------| 
--------------------------|------------------------|-------------------| 
--------------------------|------------------------|-------------------| 
--------------------------|------------------------|-------------------| 


  Q.      Q.      Q       E   Q.      Q     Q       H        Q     E   E    
-----------------------|-------------------------|------------------------| 
-----------------------|-----10------------------|------------------------| 
--9------11------12----|--L----------12----11----|--9--------L----/9--11--| 
-----------------------|-------------------------|------------------------| 
-----------------------|-------------------------|------------------------| 
-----------------------|-------------------------|------------------------| 


   H          H            Q.      E   Q     Q        E   Q.      Q     Q      
-----------------------|--------------------------|--------------------------| 
-----------------------|----------10--------------|------10------------------| 
--11b--------11--------|--12----------11----12----|---L----------12----11----| 
-----------------------|--------------------------|--------------------------| 
-----------------------|--------------------------|--------------------------| 
-----------------------|--------------------------|--------------------------| 


   Q.      Q.      Q       W                   Q.      Q.      Q      
------------------------|-------------------|-----------------------| 
----------10------------|-------------------|-----------------------| 
--12--------------12----|--L----------------|--9------11------12----| 
------------------------|-------------------|-----------------------| 
------------------------|-------------------|-----------------------| 
------------------------|-------------------|-----------------------| 


  E   Q.      Q     Q       H        Q     E   E      H          H          
-------------------------|------------------------|-----------------------| 
-----10------------------|------------------------|-----------------------| 
--L----------12----11----|--9--------L----/9--11--|--11b--------11--------| 
-------------------------|------------------------|-----------------------| 
-------------------------|------------------------|-----------------------| 
-------------------------|------------------------|-----------------------| 


  W                   W                   W                   W                  
-------------------|-------------------|-------------------|-------------------| 
-------------------|-------------------|-------------------|-------------------| 
--9----------------|--L----------------|--L----------------|--L----------------| 
-------------------|-------------------|-------------------|-------------------| 
-------------------|-------------------|-------------------|-------------------| 
-------------------|-------------------|-------------------|-------------------| 


-------------------|-------------------| 
-------------------|-------------------| 
-------------------|-------------------| 
-------------------|-------------------| 
-------------------|-------------------| 
-------------------|-------------------| 


   Pickslide                                                                     
   T         T  T  T  T  T  T  T  T  T  T  T  T  T  T T T T T T T T T T T T T T  
--24--------23-22-21-20-19-18-17-16-15-14-13-12-11-10-9-8-7-6-5-4-3-2-1--------- 
--24--------23-22-21-20-19-18-17-16-15-14-13-12-11-10-9-8-7-6-5-4-3-2-1-4-3-2-1- 
------------------------------------------------------------------------4-3-2-1- 
-------------------------------------------------------------------------------- 
-------------------------------------------------------------------------------- 
-------------------------------------------------------------------------------- 


    PH    PH    PH             PM PM PM PM PM PM PM PM PM PM PM PM PM PM PM   
    E.    E.    H        E     E  S  S  S  S  S  S  S  S  S  S  S  S  S  S    
----------------------------|-----------------------------------------------| 
----------------------------|--5--7--0--7--8--0--5--7--0--7--8--0--5--7--0--| 
----------------------------|-----------------------------------------------| 
--<>7---<>5-----------------|-----------------------------------------------| 
--------------<>7--------L--|-----------------------------------------------| 
----------------------------|-----------------------------------------------| 


  S S S S  S S S S S S  S  S  S  S S  S   
----------------------------------------| 
--7-8-0-8-10-0-7-8-0-8-10-12-10-12-0-12-| 
----------------------------------------| 
----------------------------------------| 
----------------------------------------| 
----------------------------------------| 


   |--3--|  |--3--|  |--3--|  |--3--|  |--3--|  |--3--|  |--3--|  |--3--|   
   S  S  S  S  S  S  S  S  S  S  S  S  S  S  S  S  S  S  S  S  S  S  S  S   
-----------------------------12-14-15-14-12----------------12-14-15-14-12-| 
-----------12-14-15-12-14-15----------------15-14-12-14-15----------------| 
--12-14-16----------------------------------------------------------------| 
--------------------------------------------------------------------------| 
--------------------------------------------------------------------------| 
--------------------------------------------------------------------------| 


   E.   E.   H        E      S  S S S S S S S S S S S S S S S   
--15---14---17--------L--|------------------------------------| 
-------------------------|--/8-10-0-0-7-8-0-0-5-7-0-0-3-5-0-0-| 
-------------------------|------------------------------------| 
-------------------------|------------------------------------| 
-------------------------|------------------------------------| 
-------------------------|------------------------------------| 


  S S S S S S S S S S S S S S S S   
----------------------------------| 
--5-0-0-3-0-0-5-0-0-7-0-0-5-0-3-0-| 
----------------------------------| 
----------------------------------| 
----------------------------------| 
----------------------------------| 


   |--3--|  |--3--|  |--3--|  |--3--|  |--3--|  |--3--|  |--3--|  |--3--|   
   S  S  S  S  S  S  S  S  S  S  S  S  S  S  S  S  S  S  S  S  S  S  S  S   
-----------------------------17-19-20-19-17----------------17-19-20-19-17-| 
-----------17-19-20-17-19-20----------------20-19-17-19-20----------------| 
--16-18-19----------------------------------------------------------------| 
--------------------------------------------------------------------------| 
--------------------------------------------------------------------------| 
--------------------------------------------------------------------------| 


   Q    E   S  S  H            H          H             H          H          
--20----L--20-17-19--------|-----------------------|------------------------| 
---------------------------|-----------------------|------------------------| 
---------------------------|--/9--------/11--------|--/12--------/14--------| 
---------------------------|-----------------------|------------------------| 
---------------------------|-----------------------|------------------------| 
---------------------------|-----------------------|------------------------| 


   S  S  S  S  S  S  S  S  S  S  S  S  S  S  S  S   
--19-15-------18-15-------19-15-------18-15-------| 
--------17----------17----------17----------17----| 
-----------16----------16----------16----------16-| 
--------------------------------------------------| 
--------------------------------------------------| 
--------------------------------------------------| 


   S  S  S  S  S  S  S  S  S  S  S  S  S  S  S  S   
--19-15-------18-15-------17-15-------18-15-------| 
--------17----------17----------17----------17----| 
-----------16----------16----------16----------16-| 
--------------------------------------------------| 
--------------------------------------------------| 
--------------------------------------------------| 


   S  S  S  S  S  S  S  S  S  S  S  S  S  S  S  S     E.    E.    H         E    
--19-15-18-19-18-15----------------15-17-19-17-15-|--17----17----19---------L--| 
--------------------19-17-15-17-19----------------|--21b---21b---23b-----------| 
--------------------------------------------------|----------------------------| 
--------------------------------------------------|----------------------------| 
--------------------------------------------------|----------------------------| 
--------------------------------------------------|----------------------------| 


   E.    E.    H         E    
--17----17----19---------L--| 
--21b---21b---23b-----------| 
----------------------------| 
----------------------------| 
----------------------------| 
----------------------------| 


   |--3--|  |--3--|  |--3--|  |--3--|  |--3--|  |--3--|  |--3--|  |--3--|   
   S  S  S  S  S  S  S  S  S  S  S  S  S  S  S  S  S  S  S  S  S  S  S  S   
-----------------------------14-15-17-15-14----------------14-15-17-15-14-| 
-----------14-15-17-14-15-17----------------17-15-14-15-17----------------| 
--12-14-16----------------------------------------------------------------| 
--------------------------------------------------------------------------| 
--------------------------------------------------------------------------| 
--------------------------------------------------------------------------| 


   E  E   E  E  E  E  E  E      Q.      Q.      Q       W                  
--15--L\--------------------|------------------------|-------------------| 
----------------------------|----------10------------|-------------------| 
----------------------------|--12--------------12----|--L----------------| 
----------------------------|------------------------|-------------------| 
----------------------------|------------------------|-------------------| 
----------------------------|------------------------|-------------------| 


  Q.      Q.      Q       E   Q.      Q     Q       H        Q     E   E    
-----------------------|-------------------------|------------------------| 
-----------------------|-----10------------------|------------------------| 
--9------11------12----|--L----------12----11----|--9--------L----/9--11--| 
-----------------------|-------------------------|------------------------| 
-----------------------|-------------------------|------------------------| 
-----------------------|-------------------------|------------------------| 


   H          H            Q.      E   Q     Q        E   Q.      Q     Q      
-----------------------|--------------------------|--------------------------| 
-----------------------|----------10--------------|------10------------------| 
--11b--------11--------|--12----------11----12----|---L----------12----11----| 
-----------------------|--------------------------|--------------------------| 
-----------------------|--------------------------|--------------------------| 
-----------------------|--------------------------|--------------------------| 


   Q.      Q.      Q       W                   Q.      Q.      Q      
------------------------|-------------------|-----------------------| 
----------10------------|-------------------|-----------------------| 
--12--------------12----|--L----------------|--9------11------12----| 
------------------------|-------------------|-----------------------| 
------------------------|-------------------|-----------------------| 
------------------------|-------------------|-----------------------| 


  E   Q.      Q     Q       H        Q     E   E      H          H          
-------------------------|------------------------|-----------------------| 
-----10------------------|------------------------|-----------------------| 
--L----------12----11----|--9--------L----/9--11--|--11b--------11--------| 
-------------------------|------------------------|-----------------------| 
-------------------------|------------------------|-----------------------| 
-------------------------|------------------------|-----------------------| 


   Q.      E   Q     Q        E   Q.      Q     Q        Q.      Q.      Q      
--------------------------|--------------------------|------------------------| 
----------10--------------|------10------------------|----------10------------| 
--12----------11----12----|---L----------12----11----|--12--------------12----| 
--------------------------|--------------------------|------------------------| 
--------------------------|--------------------------|------------------------| 
--------------------------|--------------------------|------------------------| 


  W                   Q.      Q.      Q       E   Q.      Q     Q      
-------------------|-----------------------|-------------------------| 
-------------------|-----------------------|-----10------------------| 
--L----------------|--9------11------12----|--L----------12----11----| 
-------------------|-----------------------|-------------------------| 
-------------------|-----------------------|-------------------------| 
-------------------|-----------------------|-------------------------| 


  H        Q     E   E      H          H            Q.      E   Q     Q      
------------------------|-----------------------|--------------------------| 
------------------------|-----------------------|----------10--------------| 
--9--------L----/9--11--|--11b--------11--------|--12----------11----12----| 
------------------------|-----------------------|--------------------------| 
------------------------|-----------------------|--------------------------| 
------------------------|-----------------------|--------------------------| 


   E   Q.      Q     Q        Q.      Q.      Q       W                  
--------------------------|------------------------|-------------------| 
------10------------------|----------10------------|-------------------| 
---L----------12----11----|--12--------------12----|--L----------------| 
--------------------------|------------------------|-------------------| 
--------------------------|------------------------|-------------------| 
--------------------------|------------------------|-------------------| 


  Q.      Q.      Q       E   Q.      Q     Q       H        Q     E   E    
-----------------------|-------------------------|------------------------| 
-----------------------|-----10------------------|------------------------| 
--9------11------12----|--L----------12----11----|--9--------L----/9--11--| 
-----------------------|-------------------------|------------------------| 
-----------------------|-------------------------|------------------------| 
-----------------------|-------------------------|------------------------| 


   H          H           W                   W                  
-----------------------|-------------------|-------------------| 
-----------------------|-------------------|-------------------| 
--11b--------11--------|--9----------------|--L----------------| 
-----------------------|-------------------|-------------------| 
-----------------------|-------------------|-------------------| 
-----------------------|-------------------|-------------------| 


  W                   W                   
-------------------|-------------------|| 
-------------------|-------------------|| 
--L----------------|--L----------------|| 
-------------------|-------------------|| 
-------------------|-------------------|| 
-------------------|-------------------|| 


Guitar 3 


(01:08) 


                  Q.      E   Q     Q        E   Q.      Q     Q      
-------|-------|-------------------------|--------------------------| 
-------|-------|---------10--10----12----|---L--13------12----10----| 
-------|-------|--9----------------------|--------------------------| 
-------|-------|-------------------------|--------------------------| 
-------|-------|-------------------------|--------------------------| 
-------|-------|-------------------------|--------------------------| 


   Q.      Q.      Q       W                    Q.      Q.      Q      
--10--------------------|-------------------|------------------------| 
----------13------12----|--L----------------|----------10------12----| 
------------------------|-------------------|--12--------------------| 
------------------------|-------------------|------------------------| 
------------------------|-------------------|------------------------| 
------------------------|-------------------|------------------------| 


   E   Q.      Q     Q        H         Q      E   E      H          H          
--------------------------|---------------------------|-----------------------| 
---L--13------12----10----|-----------------------10--|--10b--------10--------| 
--------------------------|--12---------L----/12------|-----------------------| 
--------------------------|---------------------------|-----------------------| 
--------------------------|---------------------------|-----------------------| 
--------------------------|---------------------------|-----------------------| 


  Q.      E   Q     Q        E   Q.      Q     Q        Q.      Q.      Q      
-------------------------|--------------------------|--10--------------------| 
---------10--10----12----|---L--13------12----10----|----------13------12----| 
--9----------------------|--------------------------|------------------------| 
-------------------------|--------------------------|------------------------| 
-------------------------|--------------------------|------------------------| 
-------------------------|--------------------------|------------------------| 


  W                    Q.      Q.      Q        E   Q.      Q     Q      
-------------------|------------------------|--------------------------| 
--L----------------|----------10------12----|---L--13------12----10----| 
-------------------|--12--------------------|--------------------------| 
-------------------|------------------------|--------------------------| 
-------------------|------------------------|--------------------------| 
-------------------|------------------------|--------------------------| 


   H         Q      E   E      H          H                                  
---------------------------|-----------------------|-------|-------|-------| 
-----------------------10--|--10b--------10--------|-------|-------|-------| 
--12---------L----/12------|-----------------------|-------|-------|-------| 
---------------------------|-----------------------|-------|-------|-------| 
---------------------------|-----------------------|-------|-------|-------| 
---------------------------|-----------------------|-------|-------|-------| 


(02:12) 


  Q.      E   Q     Q        E   Q.      Q     Q        Q.      Q.      Q      
-------------------------|--------------------------|--10--------------------| 
---------10--10----12----|---L--13------12----10----|----------13------12----| 
--9----------------------|--------------------------|------------------------| 
-------------------------|--------------------------|------------------------| 
-------------------------|--------------------------|------------------------| 
-------------------------|--------------------------|------------------------| 


  W                    Q.      Q.      Q        E   Q.      Q     Q      
-------------------|------------------------|--------------------------| 
--L----------------|----------10------12----|---L--13------12----10----| 
-------------------|--12--------------------|--------------------------| 
-------------------|------------------------|--------------------------| 
-------------------|------------------------|--------------------------| 
-------------------|------------------------|--------------------------| 


   H         Q      E   E      H          H           Q.      E   Q     Q      
---------------------------|-----------------------|-------------------------| 
-----------------------10--|--10b--------10--------|---------10--10----12----| 
--12---------L----/12------|-----------------------|--9----------------------| 
---------------------------|-----------------------|-------------------------| 
---------------------------|-----------------------|-------------------------| 
---------------------------|-----------------------|-------------------------| 


   E   Q.      Q     Q        Q.      Q.      Q       W                  
--------------------------|--10--------------------|-------------------| 
---L--13------12----10----|----------13------12----|--L----------------| 
--------------------------|------------------------|-------------------| 
--------------------------|------------------------|-------------------| 
--------------------------|------------------------|-------------------| 
--------------------------|------------------------|-------------------| 


   Q.      Q.      Q        E   Q.      Q     Q        H         Q      E   E    
------------------------|--------------------------|---------------------------| 
----------10------12----|---L--13------12----10----|-----------------------10--| 
--12--------------------|--------------------------|--12---------L----/12------| 
------------------------|--------------------------|---------------------------| 
------------------------|--------------------------|---------------------------| 
------------------------|--------------------------|---------------------------| 


   H          H            W                   W                  
-----------------------|--------------------|-------------------| 
--10b--------10--------|--------------------|-------------------| 
-----------------------|--12----------------|--L----------------| 
-----------------------|--------------------|-------------------| 
-----------------------|--------------------|-------------------| 
-----------------------|--------------------|-------------------| 


  W                   W                                                          
-------------------|-------------------|-------------------|-------------------| 
-------------------|-------------------|-------------------|-------------------| 
--L----------------|--L----------------|-------------------|-------------------| 
-------------------|-------------------|-------------------|-------------------| 
-------------------|-------------------|-------------------|-------------------| 
-------------------|-------------------|-------------------|-------------------| 


(03:00) 


    S  S S S  S  S S S S  S S S S S S S    S S S S S S S S S  S S S S S S S   
----------------------------------------|-----------------------------------| 
--/12-13-0-0-10-12-0-0-8-10-0-0-7-8-0-0-|--8-0-0-7-0-0-8-0-0-10-0-0-8-0-7-0-| 
----------------------------------------|-----------------------------------| 
----------------------------------------|-----------------------------------| 
----------------------------------------|-----------------------------------| 
----------------------------------------|-----------------------------------| 


       --                                                                        
              H          H             H          H                              
----|----|------------------------|------------------------|-------------------| 
----|----|------------------------|------------------------|-------------------| 
----|----|--/12--------/14--------|--/16--------/17--------|-------------------| 
----|----|------------------------|------------------------|-------------------| 
----|----|------------------------|------------------------|-------------------| 
----|----|------------------------|------------------------|-------------------| 


-------------------|-------------------|-------------------|-------------------| 
-------------------|-------------------|-------------------|-------------------| 
-------------------|-------------------|-------------------|-------------------| 
-------------------|-------------------|-------------------|-------------------| 
-------------------|-------------------|-------------------|-------------------| 
-------------------|-------------------|-------------------|-------------------| 


   |--3--|  |--3--|  |--3--|  |--3--|  |--3--|  |--3--|  |--3--|  |--3--|   
   S  S  S  S  S  S  S  S  S  S  S  S  S  S  S  S  S  S  S  S  S  S  S  S   
-----------------------------17-19-20-19-17----------------17-19-20-19-17-| 
-----------17-19-20-17-19-20----------------20-19-17-19-20----------------| 
--16-18-19----------------------------------------------------------------| 
--------------------------------------------------------------------------| 
--------------------------------------------------------------------------| 
--------------------------------------------------------------------------| 


   E  E   E  E  E  E  E  E      Q.      Q.      Q       W                  
--19--L\--------------------|--10--------------------|-------------------| 
----------------------------|----------13------12----|--L----------------| 
----------------------------|------------------------|-------------------| 
----------------------------|------------------------|-------------------| 
----------------------------|------------------------|-------------------| 
----------------------------|------------------------|-------------------| 


   Q.      Q.      Q        E   Q.      Q     Q        H         Q      E   E    
------------------------|--------------------------|---------------------------| 
----------10------12----|---L--13------12----10----|-----------------------10--| 
--12--------------------|--------------------------|--12---------L----/12------| 
------------------------|--------------------------|---------------------------| 
------------------------|--------------------------|---------------------------| 
------------------------|--------------------------|---------------------------| 


   H          H           Q.      E   Q     Q        E   Q.      Q     Q      
-----------------------|-------------------------|--------------------------| 
--10b--------10--------|---------10--10----12----|---L--13------12----10----| 
-----------------------|--9----------------------|--------------------------| 
-----------------------|-------------------------|--------------------------| 
-----------------------|-------------------------|--------------------------| 
-----------------------|-------------------------|--------------------------| 


   Q.      Q.      Q       W                    Q.      Q.      Q      
--10--------------------|-------------------|------------------------| 
----------13------12----|--L----------------|----------10------12----| 
------------------------|-------------------|--12--------------------| 
------------------------|-------------------|------------------------| 
------------------------|-------------------|------------------------| 
------------------------|-------------------|------------------------| 


   E   Q.      Q     Q        H         Q      E   E      H          H          
--------------------------|---------------------------|-----------------------| 
---L--13------12----10----|-----------------------10--|--10b--------10--------| 
--------------------------|--12---------L----/12------|-----------------------| 
--------------------------|---------------------------|-----------------------| 
--------------------------|---------------------------|-----------------------| 
--------------------------|---------------------------|-----------------------| 


  Q.      E   Q     Q        E   Q.      Q     Q        Q.      Q.      Q      
-------------------------|--------------------------|--10--------------------| 
---------10--10----12----|---L--13------12----10----|----------13------12----| 
--9----------------------|--------------------------|------------------------| 
-------------------------|--------------------------|------------------------| 
-------------------------|--------------------------|------------------------| 
-------------------------|--------------------------|------------------------| 


  W                    Q.      Q.      Q        E   Q.      Q     Q      
-------------------|------------------------|--------------------------| 
--L----------------|----------10------12----|---L--13------12----10----| 
-------------------|--12--------------------|--------------------------| 
-------------------|------------------------|--------------------------| 
-------------------|------------------------|--------------------------| 
-------------------|------------------------|--------------------------| 


   H         Q      E   E      H          H           Q.      E   Q     Q      
---------------------------|-----------------------|-------------------------| 
-----------------------10--|--10b--------10--------|---------10--10----12----| 
--12---------L----/12------|-----------------------|--9----------------------| 
---------------------------|-----------------------|-------------------------| 
---------------------------|-----------------------|-------------------------| 
---------------------------|-----------------------|-------------------------| 


   E   Q.      Q     Q        Q.      Q.      Q       W                  
--------------------------|--10--------------------|-------------------| 
---L--13------12----10----|----------13------12----|--L----------------| 
--------------------------|------------------------|-------------------| 
--------------------------|------------------------|-------------------| 
--------------------------|------------------------|-------------------| 
--------------------------|------------------------|-------------------| 


   Q.      Q.      Q        E   Q.      Q     Q        H         Q      E   E    
------------------------|--------------------------|---------------------------| 
----------10------12----|---L--13------12----10----|-----------------------10--| 
--12--------------------|--------------------------|--12---------L----/12------| 
------------------------|--------------------------|---------------------------| 
------------------------|--------------------------|---------------------------| 
------------------------|--------------------------|---------------------------| 


   H          H            W                   W                  
-----------------------|--------------------|-------------------| 
--10b--------10--------|--------------------|-------------------| 
-----------------------|--12----------------|--L----------------| 
-----------------------|--------------------|-------------------| 
-----------------------|--------------------|-------------------| 
-----------------------|--------------------|-------------------| 


  W                   W                   
-------------------|-------------------|| 
-------------------|-------------------|| 
--L----------------|--L----------------|| 
-------------------|-------------------|| 
-------------------|-------------------|| 
-------------------|-------------------|| 


Duration Legend 
--------------- 
W - whole 
H - half 
Q - quarter 
E - 8th 
S - 16th 
T - 32nd 
X - 64th 
. - note dotted 
|-n-|  - n-tuplets 


Tablature Legend 
---------------- 
L - tied note 
x - dead note 
g - grace note 
(n) - ghost note 
> - accentuded note 
NH - natural harmonic 
AH - artificial harmonic 
TH - tapped harmonic 
SH - semi harmonic 
PH - pitch harmonic 
h - hammer on 
p - pull off 
b - bend 
br - bendRelease 
pb - preBend 
pbr - preBendRelease 
brb - bendReleaseBend 
\n/ - tremolo bar dip 
\n - tremolo bar dive 
-/n - tremolo bar Release up 
/n\ - tremolo bar inverted dip 
/n - tremolo bar return 
-\n - tremolo bar Release down 
S - shift slide 
s - legato slide 
/ -  slide into from below or out of upwards 
\ -  slide into from above or out of downwards 
~ - vibrato 
W - wide vibrato 
tr - trill 
TP - tremolo picking 
T - tapping 
S - slap 
P - pop 
< - fade in 
^ - brush up 
v - brush down 


That is all! I hope this helped, and be sure to check out my cover if you are 
having problems with the tab. Thanks, oh and one last thing... ROCK OUT!!!! 
		  

Full key step upFull key step up
Half key step upHalf key step up
Half key step downHalf key step down
Full key step downFull key step down
hide glossary

See also:

tabs Bullet for my Valentine - Things I Hate (revolve Around Me) tabs Bullet for my Valentine - No control tabs Bullet for my Valentine - Riot tabs Bullet for my Valentine - Livin' Life (on The Edge Of A Knife) tabs Bullet for my Valentine - Just Another Star tabs Bullet for my Valentine - Tears Dont Fall Acoustic
e-chords

Other versions:

tabs Bullet for my Valentine - Raising Hell
auto scroll beats size up size down change color hide chords drawings
tab show chords e-chords YouTube Clip e-chords hide all tabs e-chords go to top tab

share