Bullet for my Valentine

Alone

Bullet for my Valentine

tabs Expert expert

by  ANDRSOUZA

save to print version add songbook text version e-mail correct tuner
chordsukulelecavacokeyboardtabbassdrumsharmonicaflute Guitar Pro
close

there isn't a video lesson for this song

chords

Alone

	  		(intro) 

(part 1) 
(guitar 1) 
(0)00) 
|-------------------------------------------------------------| 
|-0h5h8t13p8p5p0-0h5h8t13p8p5p0-0h5h8t13p8p5p0-0h5h8t13p8p5p0-| 
|-------------------------------------------------------------| 
|-------------------------------------------------------------| 
|-------------------------------------------------------------| 
|-------------------------------------------------------------| 

(0)02) 
|-------------------------------------------------------------| 
|-0h5h8t10p8p5p0-0h5h8t10p8p5p0-0h5h8t10p8p5p0-0h5h8t10p8p5p0-| 
|-------------------------------------------------------------| 
|-------------------------------------------------------------| 
|-------------------------------------------------------------| 
|-------------------------------------------------------------| 

(0)04) 
|-------------------------------------------------------------| 
|-0h5h8t12p8p5p0-0h5h8t12p8p5p0-0h5h8t12p8p5p0-0h5h8t12p8p5p0-| 
|-------------------------------------------------------------| 
|-------------------------------------------------------------| 
|-------------------------------------------------------------| 
|-------------------------------------------------------------| 

(0)06) 
|-------------------------------------------------------------| 
|-0h5h8t10p8p5p0-0h5h8t10p8p5p0-0h5h8t10p8p5p0-0h5h8t10p8p5p0-| 
|-------------------------------------------------------------| 
|-------------------------------------------------------------| 
|-------------------------------------------------------------| 
|-------------------------------------------------------------| 

(0)08) 
|-------------------------------------------------------------| 
|-0h5h8t13p8p5p0-0h5h8t13p8p5p0-0h5h8t13p8p5p0-0h5h8t13p8p5p0-| 
|-------------------------------------------------------------| 
|-------------------------------------------------------------| 
|-------------------------------------------------------------| 
|-------------------------------------------------------------| 

(0)10) 
|-------------------------------------------------------------| 
|-0h5h8t10p8p5p0-0h5h8t10p8p5p0-0h5h8t10p8p5p0-0h5h8t10p8p5p0-| 
|-------------------------------------------------------------| 
|-------------------------------------------------------------| 
|-------------------------------------------------------------| 
|-------------------------------------------------------------| 

(0)12) 
|-------------------------------------------------------------| 
|-0h5h8t12p8p5p0-0h5h8t12p8p5p0-0h5h8t12p8p5p0-0h5h8t12p8p5p0-| 
|-------------------------------------------------------------| 
|-------------------------------------------------------------| 
|-------------------------------------------------------------| 
|-------------------------------------------------------------| 

(0)14) 
|-------------------------------------------------------------| 
|-0h5h8t10p8p5p0-0h5h8t10p8p5p0-0h5h8t10p8p5p0-0h5h8t10p8p5p0-| 
|-------------------------------------------------------------| 
|-------------------------------------------------------------| 
|-------------------------------------------------------------| 
|-------------------------------------------------------------| 

(0)17) 
|-------------------------------------------------------------| 
|-0h5h8t13p8p5p0-0h5h8t13p8p5p0-0h5h8t13p8p5p0-0h5h8t13p8p5p0-| 
|-------------------------------------------------------------| 
|-------------------------------------------------------------| 
|-------------------------------------------------------------| 
|-------------------------------------------------------------| 

(0)19) 
|-------------------------------------------------------------| 
|-0h5h8t10p8p5p0-0h5h8t10p8p5p0-0h5h8t10p8p5p0-0h5h8t10p8p5p0-| 
|-------------------------------------------------------------| 
|-------------------------------------------------------------| 
|-------------------------------------------------------------| 
|-------------------------------------------------------------| 

(0)21) 
|-------------------------------------------------------------| 
|-0h5h8t12p8p5p0-0h5h8t12p8p5p0-0h5h8t12p8p5p0-0h5h8t12p8p5p0-| 
|-------------------------------------------------------------| 
|-------------------------------------------------------------| 
|-------------------------------------------------------------| 
|-------------------------------------------------------------| 

(0)23) 
|-------------------------------------------------------------| 
|-0h5h8t10p8p5p0-0h5h8t10p8p5p0-0h5h8t10p8p5p0-0h5h8t10p8p5p0-| 
|-------------------------------------------------------------| 
|-------------------------------------------------------------| 
|-------------------------------------------------------------| 
|-------------------------------------------------------------| 

(0)25) 
|-------------------------------------------------------------| 
|-0h5h8t13p8p5p0-0h5h8t13p8p5p0-0h5h8t13p8p5p0-0h5h8t13p8p5p0-| 
|-------------------------------------------------------------| 
|-------------------------------------------------------------| 
|-------------------------------------------------------------| 
|-------------------------------------------------------------| 

(0)27) 
|-------------------------------------------------------------| 
|-0h5h8t10p8p5p0-0h5h8t10p8p5p0-0h5h8t10p8p5p0-0h5h8t10p8p5p0-| 
|-------------------------------------------------------------| 
|-------------------------------------------------------------| 
|-------------------------------------------------------------| 
|-------------------------------------------------------------| 

(0)29) 
|--------------------| 
|-5~~~~--------------| 
|--------------------| 
|--------------------| 
|--------------------| 
|--------------------| 

(guitar 2) 
(0)00) 
|-------------------------------------------------------------| 
|-------------------------------------------------------------| 
|-5~~~~-------------------------------------------------------| 
|-5~~~~-------------------------------------------------------| 
|-3~~~~-------------------------------------------------------| 
|-------------------------------------------------------------| 

(0)02) 
|-------------------------------------------------------------| 
|-------------------------------------------------------------| 
|-2~~~~-------------------------------------------------------| 
|-2~~~~-------------------------------------------------------| 
|-0~~~~-------------------------------------------------------| 
|-------------------------------------------------------------| 

(0)04) 
|-------------------------------------------------------------| 
|-------------------------------------------------------------| 
|-------------------------------------------------------------| 
|-2~~~~-------------------------------------------------------| 
|-2~~~~-------------------------------------------------------| 
|-2~~~~-------------------------------------------------------| 

(0)06) 
|-------------------------------------------------------------| 
|-------------------------------------------------------------| 
|-------------------------------------------------------------| 
|-5~~~~-------------------------------------------------------| 
|-5~~~~-------------------------------------------------------| 
|-5~~~~-------------------------------------------------------| 

(0)08) 
|-------------------------------------------------------------| 
|-------------------------------------------------------------| 
|-5~~~~-------------------------------------------------------| 
|-5~~~~-------------------------------------------------------| 
|-3~~~~-------------------------------------------------------| 
|-------------------------------------------------------------| 

(0)10) 
|-------------------------------------------------------------| 
|-------------------------------------------------------------| 
|-2~~~~-------------------------------------------------------| 
|-2~~~~-------------------------------------------------------| 
|-0~~~~-------------------------------------------------------| 
|-------------------------------------------------------------| 

(0)12) 
|-------------------------------------------------------------| 
|-------------------------------------------------------------| 
|-------------------------------------------------------------| 
|-2~~~~-------------------------------------------------------| 
|-2~~~~-------------------------------------------------------| 
|-2~~~~-------------------------------------------------------| 

(0)14) 
|-------------------------------------------------------------| 
|-------------------------------------------------------------| 
|-------------------------------------------------------------| 
|-5~~~~-------------------------------------------------------| 
|-5~~~~-------------------------------------------------------| 
|-5~~~~-------------------------------------------------------| 

(0)17) 
|-------------------------------------------------------------| 
|-------------------------------------------------------------| 
|-5~~~~-------------------------------------------------------| 
|-5~~~~-------------------------------------------------------| 
|-3~~~~-------------------------------------------------------| 
|-------------------------------------------------------------| 

(0)19) 
|-------------------------------------------------------------| 
|-------------------------------------------------------------| 
|-2~~~~-------------------------------------------------------| 
|-2~~~~-------------------------------------------------------| 
|-0~~~~-------------------------------------------------------| 
|-------------------------------------------------------------| 

(0)21) 
|-------------------------------------------------------------| 
|-------------------------------------------------------------| 
|-------------------------------------------------------------| 
|-2~~~~-------------------------------------------------------| 
|-2~~~~-------------------------------------------------------| 
|-2~~~~-------------------------------------------------------| 

(0)23) 
|-------------------------------------------------------------| 
|-------------------------------------------------------------| 
|-------------------------------------------------------------| 
|-5~~~~-------------------------------------------------------| 
|-5~~~~-------------------------------------------------------| 
|-5~~~~-------------------------------------------------------| 

(0)25) 
|-------------------------------------------------------------| 
|-------------------------------------------------------------| 
|-5~~~~-------------------------------------------------------| 
|-5~~~~-------------------------------------------------------| 
|-3~~~~-------------------------------------------------------| 
|-------------------------------------------------------------| 

(0)27) 
|-------------------------------------------------------------| 
|-------------------------------------------------------------| 
|-2~~~~-------------------------------------------------------| 
|-2~~~~-------------------------------------------------------| 
|-0~~~~-------------------------------------------------------| 
|-------------------------------------------------------------| 

(0)29) 
|--------------------| 
|--------------------| 
|--------------------| 
|-2~~~~--------------| 
|-2~~~~--------------| 
|-2~~~~--------------| 

I'm just gonna skip 0)29-0)36, considering it should be obvious with the 
tabs below... 

(intro) 
(part 2) 
(guitar 1) 
(0)37) 
|-----------------------------------------------------------------| 
|-----------------------------------------------------------------| 
|-----------------------------------------------------------------| 
|-----4p2-4p2-----5p2-5p2-------------4p2-4p2-----5h7p5-0h4-0h4h5-| 
|-2-2---------2-2---------2-2-----2-2---------2-2-----------------| 
|-2-2---------2-2---------2-2-0-2-2-2---------2-2-----------------| 
  . .         . .         . .     . .         . . 

(0)41) 
|-----------------------------------------------------------------| 
|-----------------------------------------------------------------| 
|-----------------------------------------------------------------| 
|-----4p2-4p2-----5p2-5p2-------------4p2-4p2-----5h7p5-0h4-0h4h5-| 
|-2-2---------2-2---------2-2-----2-2---------2-2-----------------| 
|-2-2---------2-2---------2-2-0-2-2-2---------2-2-----------------| 
  . .         . .         . .     . .         . . 

(0)45) 
|-----------------------------------------------------------------| 
|-----------------------------------------------------------------| 
|-----------------------------------------------------------------| 
|-----4p2-4p2-----5p2-5p2-------------4p2-4p2-----5h7p5-0h4-0h4h5-| 
|-2-2---------2-2---------2-2-----2-2---------2-2-----------------| 
|-2-2---------2-2---------2-2-0-2-2-2---------2-2-----------------| 
  . .         . .         . .     . .         . . 

(0)49) 
|-----------------------------------------------------------------| 
|-----------------------------------------------------------------| 
|-----------------------------------------------------------------| 
|-----4p2-4p2-----5p2-5p2-------------4p2-4p2-----5h7p5-0h4-0h4h5-| 
|-2-2---------2-2---------2-2-----2-2---------2-2-----------------| 
|-2-2---------2-2---------2-2-0-2-2-2---------2-2-----------------| 
  . .         . .         . .     . .         . . 

(0)53) 
|-----------------------------------------------------------------| 
|-----------------------------------------------------------------| 
|-----------------------------------------------------------------| 
|-----4p2-4p2-----5p2-5p2-------------4p2-4p2-----5h7p5-0h4-0h4h5-| 
|-2-2---------2-2---------2-2-----2-2---------2-2-----------------| 
|-2-2---------2-2---------2-2-0-2-2-2---------2-2-----------------| 
  . .         . .         . .     . .         . . 

(guitar 2) 
(0)37) 
|------------------------------------------------------------------| 
|------------------------------------------------------------------| 
|------------------------------------------------------------------| 
|-----4p2-4p2-----5p2-5p2-------------4p2-4p2-----9h10p9-0h7-0h7h9-| 
|-2-2---------2-2---------2-2-2-2-2-2---------2-2------------------| 
|-2-2---------2-2---------2-2-2-2-2-2---------2-2------------------| 
  . .         . .         . . . . . .         . . 

(0)41) 
|------------------------------------------------------------------| 
|------------------------------------------------------------------| 
|------------------------------------------------------------------| 
|-----4p2-4p2-----5p2-5p2-------------4p2-4p2-----9h10p9-0h7-0h7h9-| 
|-2-2---------2-2---------2-2-----2-2---------2-2------------------| 
|-2-2---------2-2---------2-2-0-2-2-2---------2-2------------------| 
  . .         . .         . .     . .         . . 

(0)45) 
|------------------------------------------------------------------| 
|------------------------------------------------------------------| 
|------------------------------------------------------------------| 
|-----4p2-4p2-----5p2-5p2-------------4p2-4p2-----9h10p9-0h7-0h7h9-| 
|-2-2---------2-2---------2-2-----2-2---------2-2------------------| 
|-2-2---------2-2---------2-2-0-2-2-2---------2-2------------------| 
  . .         . .         . .     . .         . . 

(0)49) 
|------------------------------------------------------------------| 
|------------------------------------------------------------------| 
|------------------------------------------------------------------| 
|-----4p2-4p2-----5p2-5p2-------------4p2-4p2-----9h10p9-0h7-0h7h9-| 
|-2-2---------2-2---------2-2-----2-2---------2-2------------------| 
|-2-2---------2-2---------2-2-0-2-2-2---------2-2------------------| 
  . .         . .         . .     . .         . . 

(0)53) 
|------------------------------------------------------------------| 
|------------------------------------------------------------------| 
|------------------------------------------------------------------| 
|-----4p2-4p2-----5p2-5p2-------------4p2-4p2-----9h10p9-0h7-0h7h9-| 
|-2-2---------2-2---------2-2-----2-2---------2-2------------------| 
|-2-2---------2-2---------2-2-0-2-2-2---------2-2------------------| 
  . .         . .         . .     . .         . . 

(pre verse) 
(guitar 1) 
(finger tapping (left-hand)... all one tap, no picking, but I'll separate 
them out in segments so it's easier to read) 
(0)57) 
|---------------------------------| 
|---------------------------------| 
|---------------------------------| 
|-0h4-0h4h7p4-0h4p0-4h7p4p0-4h5p4-| 
|---------------------------------| 
|---------------------------------| 

(verse 1) 
(guitar 1) 
(0)59) 
"No more I'm taking this hatred from you, you..." 
|-----------------------------------------------------------------| 
|-----------------------------------------------------------------| 
|-----------------------------------------------------------------| 
|-----4p2-4p2-----5p2-5p2-------------4p2-4p2-----5h7p5-0h4-0h4h5-| 
|-2-2---------2-2---------2-2-----2-2---------2-2-----------------| 
|-2-2---------2-2---------2-2-0-2-2-2---------2-2-----------------| 
  . .         . .         . .     . .         . . 

(1)03) 
"make me feel dead when I'm talking to you, you'll..." 
|------------------------------------------------------------------| 
|------------------------------------------------------------------| 
|-----------------------------------------7-7--------------9-9-----| 
|-----4p2-4p2-----5p2-5p2-------------5-5-----5-5-----7-7------7-7-| 
|-2-2---------2-2---------2-2-----3-3-------------5-5--------------| 
|-2-2---------2-2---------2-2-0-2----------------------------------| 
  . .         . .         . .     . . . .         . . . . 

(1)07) 
"take me for granted when I'm not around, so..." 
|-----------------------------------------------------------------| 
|-----------------------------------------------------------------| 
|-----------------------------------------------------------------| 
|-----4p2-4p2-----5p2-5p2-------------4p2-4p2-----5h7p5-0h4-0h4h5-| 
|-2-2---------2-2---------2-2-----2-2---------2-2-----------------| 
|-2-2---------2-2---------2-2-0-2-2-2---------2-2-----------------| 
  . .         . .         . .     . .         . . 

(1)12) 
"burn all your bridges cuz I'm not going..." 
|------------------------------------------------------------------| 
|------------------------------------------------------------------| 
|-----------------------------------------7-7--------------9-9-----| 
|-----4p2-4p2-----5p2-5p2-------------5-5-----5-5-----7-7------7-7-| 
|-2-2---------2-2---------2-2-----3-3-------------5-5--------------| 
|-2-2---------2-2---------2-2-0-2----------------------------------| 
  . .         . .         . .     . . . .         . . . . 

(guitar 2) 
(0)59) 
|------------------------------------------------------------------| 
|------------------------------------------------------------------| 
|------------------------------------------------------------------| 
|-----4p2-4p2-----5p2-5p2-------------4p2-4p2-----9h10p9-0h7-0h7h9-| 
|-2-2---------2-2---------2-2-----2-2---------2-2------------------| 
|-2-2---------2-2---------2-2-0-2-2-2---------2-2------------------| 
  . .         . .         . .     . .         . . 

(1)03) 
|------------------------------------------------------------------| 
|------------------------------------------------------------------| 
|------------------------------------------------------------------| 
|-----4p2-4p2-----5p2-5p2---------5~~~~-----------7~~~~------------| 
|-2-2---------2-2---------2-2-----3~~~~-----------5~~~~------------| 
|-2-2---------2-2---------2-2-0-2----------------------------------| 
  . .         . .         . . 

(1)07) 
|------------------------------------------------------------------| 
|------------------------------------------------------------------| 
|------------------------------------------------------------------| 
|-----4p2-4p2-----5p2-5p2-------------4p2-4p2-----9h10p9-0h7-0h7h9-| 
|-2-2---------2-2---------2-2-----2-2---------2-2------------------| 
|-2-2---------2-2---------2-2-0-2-2-2---------2-2------------------| 
  . .         . .         . .     . .         . . 

(1)12) 
|------------------------------------------------------------------| 
|------------------------------------------------------------------| 
|------------------------------------------------------------------| 
|-----4p2-4p2-----5p2-5p2---------5~~~~-----------7~~~~------------| 
|-2-2---------2-2---------2-2-----3~~~~-----------5~~~~------------| 
|-2-2---------2-2---------2-2-0-2----------------------------------| 
  . .         . .         . . 

(pré-Chorus) can't figure out the palm-muted riff that Padge plays... I doubt you will 
so please don't give me shit for it 
Both guitars) 
(1)16) 
"down... This time I will be heard, I'm not gonna burn..." 
|----------------------------------------| 
|----------------------------------------| 
|-5~~~~------2~~~~-----------------------| 
|-5~~~~------2~~~~------2~~~~------5~~~~-| 
|-3~~~~------0~~~~------2~~~~------5~~~~-| 
|-----------------------2~~~~------5~~~~-| 

(1)24) 
"It's funny how the tables, how the tables turn..." 
|---------------------------------------------| 
|---------------------------------------------| 
|-5~~~~------2~~~~----------------------------| 
|-5~~~~------2~~~~------2~~~~------5--5--5--5-| 
|-3~~~~------0~~~~------2~~~~------5--5--5--5-| 
|-----------------------2~~~~------5--5--5--5-| 

(Chorus) 
(both guitars) 
(1)32) 
"You fake your damnation..." 
|-----------------------------------------------------------------| 
|-----------------------------------------------------------------| 
|-----------------------------------------------------------------| 
|-----------------------------------------------------------------| 
|-2-2---2-2-2---2-2-2---2-2-2---2-2-2---2-2-2---2-2-2---2-0-0---0-| 
|-2-2---2-2-2---2-2-2---2-2-2---2-2-2---2-2-2---2-2-2---2-0-0---0-| 
  . .   . . .   . . .   . . .   . . .   . . .   . . .   . . .   . 

(1)36) 
"You pray for salvation..." 
|-----------------------------------------------------------------| 
|-----------------------------------------------------------------| 
|-----------------------------------------------------------------| 
|-----------------------------------------------------------------| 
|-2-2---2-2-2---2-2-2---2-2-2---2-2-2---2-2-2---2-2-2---2-0-0---0-| 
|-2-2---2-2-2---2-2-2---2-2-2---2-2-2---2-2-2---2-2-2---2-0-0---0-| 
  . .   . . .   . . .   . . .   . . .   . . .   . . .   . . .   . 

(1)40) 
"Cuz your heart is made of stone..." 
|-----------------------------------------------------------------| 
|-----------------------------------------------------------------| 
|-----------------------------------------------------------------| 
|-5-5---5-5-5---5-5-5---5-5-5---5-5-5---5-5-5---5-5-5---5-5-5---5-| 
|-3-3---3-3-3---3-3-3---3-3-3---3-3-3---3-3-3---3-3-3---3-3-3---3-| 
|-----------------------------------------------------------------| 
  . .   . . .   . . .   . . .   . . .   . . .   . . .   . . .   . 

(1)44) 
"You can die and rot alone..." 
|---------------------------------------------------------------| 
|---------------------------------------------------------------| 
|---------------------------------------------------------------| 
|------------------------------------0~--0~-------0~--0~--\\\\--| 
|-0-0---0-0-0---0-0-0---0-0-0----0-0-0~--0~---0-0-0~--0~--\\\\--| 
|-0-0---0-0-0---0-0-0---0-0-0----0-0-0~--0~---0-0-0~--0~--\\\\--| 
  . .   . . .   . . .   . . .    . .          . . 

(post Chorus) 
(guitar 1) 
(1)48) 
|-----------------------------------------------------------------| 
|-----------------------------------------------------------------| 
|-----------------------------------------------------------------| 
|-----4p2-4p2-----5p2-5p2-------------4p2-4p2-----5h7p5-0h4-0h4h5-| 
|-2-2---------2-2---------2-2-----2-2---------2-2-----------------| 
|-2-2---------2-2---------2-2-0-2-2-2---------2-2-----------------| 
  . .         . .         . .     . .         . . 

(guitar 2) 
(1)48) 
|------------------------------------------------------------------| 
|------------------------------------------------------------------| 
|------------------------------------------------------------------| 
|-----4p2-4p2-----5p2-5p2-------------4p2-4p2-----9h10p9-0h7-0h7h9-| 
|-2-2---------2-2---------2-2-2-2-2-2---------2-2------------------| 
|-2-2---------2-2---------2-2-2-2-2-2---------2-2------------------| 
  . .         . .         . . . . . .         . . 

(verse 2) 
(1)52-2)08) 
"I hope you're unhappy and hurting inside... 
I want you to choke when you swallow your pride... 
Lay in your coffin and sleep with your sins... 
Give me the nails and I'll hammer them in right now..." 

(pre-Chorus) 
(2)09-2)24) 
"This time you won't be heard... 
You are gonna burn... 
It's funny how the table... 
How the table turns..." 

(Chorus 2x) 
(2)25-2)56) 
"You fake your damnation... 
You pray for salvation... 
Cuz your heart is made of stone... 
You can die and rot alone... 
You fake your damnation... 
You pray for salvation... 
Cuz your heart is made of stone... 
You can die and rot alone..." 

(pré-solo) 

(guitar 1) 
(2)57) 
|-----------------------------------------------------| 
|-----------------------------------------------------| 
|-/11~-13h14p13p11-13-14-13h14p13p11-13-14-13h14p13-9-| 
|-----------------------------------------------------| 
|-----------------------------------------------------| 
|-----------------------------------------------------| 

(3)01) 
|------------------------------------------------------| 
|------------------------------------------------------| 
|-/11~-13h14p13p11-13-14-13h14p13p11-13-14-13h14p13p11-| 
|------------------------------------------------------| 
|------------------------------------------------------| 
|------------------------------------------------------| 

(3)04) 
|----------------------------------------------------| 
|----------------------------------------------------| 
|-9~-13h14p13p11-13-14-13h14p13p11-13-14-13h14p13-11-| 
|----------------------------------------------------| 
|----------------------------------------------------| 
|----------------------------------------------------| 

(3)08) 
|---------------------------------------------------| 
|---------------------------------------------------| 
|-9~-13h14p13p11-13-14-13h14p13p11-13-14-13h14p13-9-| 
|---------------------------------------------------| 
|---------------------------------------------------| 
|---------------------------------------------------| 

(3)12) 
|-----------------------------------------------------| 
|-----------------------------------------------------| 
|-/11~-13h14p13p11-13-14-13h14p13p11-13-14-13h14p13-9-| 
|-----------------------------------------------------| 
|-----------------------------------------------------| 
|-----------------------------------------------------| 

(3)16) 
|------------------------------------------------------| 
|------------------------------------------------------| 
|-/11~-13h14p13p11-13-14-13h14p13p11-13-14-13h14p13p11-| 
|------------------------------------------------------| 
|------------------------------------------------------| 
|------------------------------------------------------| 

(3)20) 
|----------------------------------------------------| 
|----------------------------------------------------| 
|-9~-13h14p13p11-13-14-13h14p13p11-13-14-13h14p13-11-| 
|----------------------------------------------------| 
|----------------------------------------------------| 
|----------------------------------------------------| 

(3)24) 
|--------------------------------------------------------------------------------------| 
|--------------------------------------------------------------------------------------| 
|-9~-13h14p13p11-----------------------------------------------------11h13h14-11h13h14-| 
|--------------------------------------------------11h12h14-11h12h14-------------------| 
|----------------9h11h12-9h11h12-11h12h14-11h12h14-------------------------------------| 
|--------------------------------------------------------------------------------------| 

(guitar 2) 
(2)57) 
|-----------------------------------------------------------------| 
|-----------------------------------------------------------------| 
|-----------------------------------------------------------------| 
|-----------------------------------------------------------------| 
|-4-4---4-4-4---4-4-4---4-4-4---4-4-4---4-4-4---4-4-4---4-2-2---2-| 
|-4-4---4-4-4---4-4-4---4-4-4---4-4-4---4-4-4---4-4-4---4-2-2---2-| 
  . .   . . .   . . .   . . .   . . .   . . .   . . .   . . .   . 

(3)01) 
|-----------------------------------------------------------------| 
|-----------------------------------------------------------------| 
|-----------------------------------------------------------------| 
|-----------------------------------------------------------------| 
|-4-4---4-4-4---4-4-4---4-4-4---4-4-4---4-4-4---4-4-4---4-2-2---2-| 
|-4-4---4-4-4---4-4-4---4-4-4---4-4-4---4-4-4---4-4-4---4-2-2---2-| 
  . .   . . .   . . .   . . .   . . .   . . .   . . .   . . .   . 

(3)04) 
|-----------------------------------------------------------------| 
|-----------------------------------------------------------------| 
|-----------------------------------------------------------------| 
|-----------------------------------------------------------------| 
|-0-0---0-0-0---0-0-0---0-0-0---0-0-0---0-0-0---0-0-0---0-2-2---2-| 
|-0-0---0-0-0---0-0-0---0-0-0---0-0-0---0-0-0---0-0-0---0-2-2---2-| 
  . .   . . .   . . .   . . .   . . .   . . .   . . .   . . .   . 

(3)08) 
|-----------------------------------------------------------------| 
|-----------------------------------------------------------------| 
|-----------------------------------------------------------------| 
|-----------------------------------------------------------------| 
|-0-0---0-0-0---0-0-0---0-0-0---0-0-0---0-0-0---2-2-2---2-2-2---2-| 
|-0-0---0-0-0---0-0-0---0-0-0---0-0-0---0-0-0---2-2-2---2-2-2---2-| 
  . .   . . .   . . .   . . .   . . .   . . .   . . .   . . .   . 

(3)12) 
|------------------------------------------------------| 
|------------------------------------------------------| 
|-/14~-16h18p16p14-16-18-16h18p16p14-16-18-16h18p16-13-| 
|------------------------------------------------------| 
|------------------------------------------------------| 
|------------------------------------------------------| 

(3)16) 
|------------------------------------------------------| 
|------------------------------------------------------| 
|-/14~-16h18p16p14-16-18-16h18p16p14-16-18-16h18p16p14-| 
|------------------------------------------------------| 
|------------------------------------------------------| 
|------------------------------------------------------| 

(3)20) 
|-----------------------------------------------------| 
|-----------------------------------------------------| 
|-13~-16h18p16p14-16-18-16h18p16p14-16-18-16h18p16p14-| 
|-----------------------------------------------------| 
|-----------------------------------------------------| 
|-----------------------------------------------------| 

(3)24) 
|-----------------------------------------------------| 
|-----------------------------------------------------| 
|-13~-16h18p16p14-16-18-16h18p16p14-16-18-16h18p16-13-| 
|-----------------------------------------------------| 
|-----------------------------------------------------| 
|-----------------------------------------------------| 

(solo) 

(guitar 1) 
(3)28)       v-- the 19th fret is already bent to the 21st... 
|-16~---17~--21br19b21~--19p17h19~~-| 
|-----------------------------------| 
|-----------------------------------| 
|-----------------------------------| 
|-----------------------------------| 
|-----------------------------------| 

(3)32) 
|-14h17t21-14h17t21-14h17t21-14h17t21-12h16t19-12h16t19-12h16t19-12h16t19-| 
|-------------------------------------------------------------------------| 
|-------------------------------------------------------------------------| 
|-------------------------------------------------------------------------| 
|-------------------------------------------------------------------------| 
|-------------------------------------------------------------------------| 

(3)34) 
|-10h14t17-10h14t17-10h14t17-10h14t17-12h16t19-12h16t19-12h16t19-12h16t19-| 
|-------------------------------------------------------------------------| 
|-------------------------------------------------------------------------| 
|-------------------------------------------------------------------------| 
|-------------------------------------------------------------------------| 
|-------------------------------------------------------------------------| 

(3)36) 
|---------------------------------------------------------------------| 
|---------------------------------------------------------------------| 
|------------------------------------------11----------------11-13-14-| 
|---------9---------------9-11-12-11-13-14----14-13-11-13-14----------| 
|-9-11-12---12-11-9-11-12---------------------------------------------| 
|---------------------------------------------------------------------| 

(3)39) 
|----------------------------------------------12----------------| 
|----------12----------------12-14-15-12-14-15----15-14-12-14-15-| 
|-11-13-14----14-13-11-13-14-------------------------------------| 
|----------------------------------------------------------------| 
|----------------------------------------------------------------| 
|----------------------------------------------------------------| 

(3)41) 
|-12h14h16-12h14h16-14h16h17-14h16h17-16h17h19-16h17h19-19b21-19v~-17h19p17-16------15~~~-| 
|-------------------------------------------------------------------------------17--------| 
|-----------------------------------------------------------------------------------------| 
|-----------------------------------------------------------------------------------------| 
|-----------------------------------------------------------------------------------------| 
|-----------------------------------------------------------------------------------------| 

(guitar 2) 
(3)28) 
|-----------------------------------------------------------------| 
|-----------------------------------------------------------------| 
|-----------------------------------------------------------------| 
|-----6p4-6p4-----7p4-7p4-------------6p4-6p4-----7h9p7-0h6-0h6h7-| 
|-4-4---------4-4---------4-4-----4-4---------4-4-----------------| 
|-4-4---------4-4---------4-4-2-4-4-4---------4-4-----------------| 
  . .         . .         . .     . .         . . 

(3)32) 
|---------------------------------| 
|---------------------------------| 
|---------------------------------| 
|-----6p4-6p4-----7p4-7p4---------| 
|-4-4---------4-4---------4-4-----| 
|-4-4---------4-4---------4-4-2-4-| 
  . .         . .         . . 

(3)34) 
|---------------------------------| 
|---------------------------------| 
|-7~~~~-----------9~~~~-----------| 
|-7~~~~-----------9~~~~-----------| 
|-5~~~~-----------7~~~~-----------| 
|---------------------------------| 

(3)36) 
|-----------------------------------------------------------------| 
|-----------------------------------------------------------------| 
|-----------------------------------------------------------------| 
|-----6p4-6p4-----7p4-7p4-------------6p4-6p4-----7h9p7-0h6-0h6h7-| 
|-4-4---------4-4---------4-4-----4-4---------4-4-----------------| 
|-4-4---------4-4---------4-4-2-4-4-4---------4-4-----------------| 
  . .         . .         . .     . .         . . 

(3)41) 
|---------------------------------| 
|---------------------------------| 
|---------------------------------| 
|-----6p4-6p4-----7p4-7p4---------| 
|-4-4---------4-4---------4-4-----| 
|-4-4---------4-4---------4-4-2-4-| 
  . .         . .         . . 

(3)43) 
|---------------------------------| 
|---------------------------------| 
|-7~~~~-----------9~~~~-----------| 
|-7~~~~-----------9~~~~-----------| 
|-5~~~~-----------7~~~~-----------| 
|---------------------------------| 

(pre-Chorus) 
(3)34-3)59) 
"This time you won't be heard... 
You are gonna burn... 
It's funny how the table... 
How the table turns..." 

(Chorus 2x) 
(4)00-4)31) 
"You fake your damnation... 
You pray for salvation... 
Cuz your heart is made of stone... 
You can die and rot alone... 
You fake your damnation... 
You pray for salvation... 
Cuz your heart is made of stone... 
You can die and rot alone..." 

(post Chorus) 
(4)32-4)47) 

(verse) 

(outr)  
(part 1) 
(both guitars) 
(4)48) 
"This time you won't be heard, this time you won't be heard..." 
|----------------------------------| 
|----------------------------------| 
|-5~~~~----2~~~~-------------------| 
|-5~~~~----2~~~~----2~~~~----5~~~~-| 
|-3~~~~----0~~~~----2~~~~----5~~~~-| 
|-------------------2~~~~----5~~~~-| 

(4)57) 
"This time you won't be heard..." 
|----------------------------------| 
|----------------------------------| 
|-5~~~~----2~~~~-------------------| 
|-5~~~~----2~~~~----2~~~~----5~~~~-| 
|-3~~~~----0~~~~----2~~~~----5~~~~-| 
|-------------------2~~~~----5~~~~-| 

(outro)  
(part 2) 
(intro) (part 1 however many times it is then just slow down as you 
go along...) 
		  

See also:

tabs Bullet for my Valentine - Tears dont fall tabs Bullet for my Valentine - Army Of Noise tabs Bullet for my Valentine - Room 409 tabs Bullet for my Valentine - Dirty Little Secret tabs Bullet for my Valentine - Alone tabs Bullet for my Valentine - Tears Don't Fall (Acoustic)
e-chords

Other versions:

tabs Blink 182 - Alone tabs Creed - Alone tabs Custard - Alone tabs Green Day - Alone tabs Pearl Jam - Alone tabs Tool - Alone
auto scroll beats size up size down change color hide chords drawings
tab show chords e-chords YouTube Clip e-chords hide all tabs e-chords go to top tab

share