Buckethead

Inward Journey

Buckethead

tabs

by  AMAN_CLAUDINO

save to print version add songbook text version e-mail correct tuner
chordsukulelecavacokeyboardtabbassdrumsharmonicaflute Guitar Pro
close

there isn't a video lesson for this song

chords

Inward Journey

	  		
   Guitar I 
      ^                          ^                   ^                      ^                  
      Q     E.   H         S     W                   Q    E.  H        S    W                  
E||--10---------10---------L-|---9----------------|--7--------7--------L-|--2----------------| 
B||--10----10----------------|--10----------------|--8----8--------------|--3----------------| 
G||--11----------------------|---9----------------|--7-------------------|--2----------------| 
D||---0----------------------|---0----------------|--0-------------------|--0----------------| 
A||--------------------------|--------------------|----------------------|-------------------| 
E||--------------------------|--------------------|----------------------|-------------------| 
B||--------------------------|--------------------|----------------------|-------------------| 


   ^                          ^                   ^                      ^                  
   Q     E.   H         S     W                   Q    E.  H        S    W                  
--10---------10---------L-|---9----------------|--7--------7--------L-|--5----------------| 
--10----10----------------|--10----------------|--8----8--------------|--5----------------| 
--11----------------------|---9----------------|--7-------------------|--7----------------| 
---0----------------------|---0----------------|--0-------------------|--0----------------| 
--------------------------|--------------------|----------------------|-------------------| 
--------------------------|--------------------|----------------------|-------------------| 
--------------------------|--------------------|----------------------|-------------------| 


   ^                          ^                   ^                      ^                  
   Q     E.   H         S     W                   Q    E.  H        S    W                  
--10---------10---------L-|---9----------------|--7--------7--------L-|--2----------------| 
--10----10----------------|--10----------------|--8----8--------------|--3----------------| 
--11----------------------|---9----------------|--7-------------------|--2----------------| 
---0----------------------|---0----------------|--0-------------------|--0----------------| 
--------------------------|--------------------|----------------------|-------------------| 
--------------------------|--------------------|----------------------|-------------------| 
--------------------------|--------------------|----------------------|-------------------| 


   ^                          ^                   ^                      ^                  
   Q     E.   H         S     W                   Q    E.  H        S    W                  
--10---------10---------L-|---9----------------|--7--------7--------L-|--2----------------| 
--10----10----------------|--10----------------|--8----8--------------|--3----------------| 
--11----------------------|---9----------------|--7-------------------|--2----------------| 
---0----------------------|---0----------------|--0-------------------|--0----------------| 
--------------------------|--------------------|----------------------|-------------------| 
--------------------------|--------------------|----------------------|-------------------| 
--------------------------|--------------------|----------------------|-------------------| 


  E  E   E  E  E  E  E  E     E  E  E  E  E  E  E  E     E  E  E  E  E  E  E  E     E  E   E  E  E  E  E  E    
---------------0-----------|--------0-----------------|--0-----------0-----0-----|---------------0-----------| 
--------10-----------------|--9-----------------7-----|--------------------------|--------10-----------------| 
--6------------------6-----|--------------6-----------|--------6-----------------|--6------------------6-----| 
-----7------7-----7-----7--|-----7-----7-----7-----7--|-----7-----7-----7-----7--|-----7------7-----7-----7--| 
---------------------------|--------------------------|--------------------------|---------------------------| 
---------------------------|--------------------------|--------------------------|---------------------------| 
---------------------------|--------------------------|--------------------------|---------------------------| 


| Guitar I 
|  E  E  E  E  E  E  E  E     E  E  E  E  E  E  E  E     E  E  E  E  E  E  E  E     E  E  E  E  E  E  E  E    
|--------0-----------------|--0-----------0-----0-----|-----------2--------------|-----2-----------------2--| 
|--9-----------------7-----|--------------------------|-----2--------2--------2--|--------2--------2--------| 
|--------------6-----------|--------6-----------------|-----------------2--------|-----------2--------------| 
|-----7-----7-----7-----7--|-----7-----7-----7-----7--|--0-----0-----------0-----|--0-----------0-----0-----| 
|--------------------------|--------------------------|--------------------------|--------------------------| 
|--------------------------|--------------------------|--------------------------|--------------------------| 
|--------------------------|--------------------------|--------------------------|--------------------------| 
| 
| Guitar II 
|                                                           Q    Q    Q    Q          Q    Q     Q    Q      
|--------------------------|--------------------------|-----9----7----5----4-----|----5----7-----9----7-----| 
|--------------------------|--------------------------|----10----9----7----5-----|----7----9----10----9-----| 
|--------------------------|--------------------------|--------------------------|--------------------------| 
|--------------------------|--------------------------|--------------------------|--------------------------| 
|--------------------------|--------------------------|--------------------------|--------------------------| 
|--------------------------|--------------------------|--------------------------|--------------------------| 


| Guitar I 
|  E  E  E  E  E  E  E  E     E  E  E  E  E  E  E  E     E  E  E  E  E  E  E  E     E  E  E  E  E  E  E  E    
|-----------------2--------|-----------2--------------|-----2-----------------2--|-----------------2--------| 
|--2--------2--------2-----|-----2--------2--------2--|--------2--------2--------|--2--------2--------2-----| 
|-----2-----------------2--|-----------------2--------|-----------2--------------|-----2-----------------2--| 
|--------0-----0-----------|--0-----0-----------0-----|--0-----------0-----0-----|--------0-----0-----------| 
|--------------------------|--------------------------|--------------------------|--------------------------| 
|--------------------------|--------------------------|--------------------------|--------------------------| 
|--------------------------|--------------------------|--------------------------|--------------------------| 
| 
| Guitar II 
|     Q    Q    Q    Q            Q    Q    Q    Q          Q    Q     Q    Q          Q    Q    H       
|-----5----4----5----7-----|------9----7----5----4----|-----5----7-----9----7----|-----5----4----5----------| 
|-----7----5----7----9-----|-----10----9----7----5----|-----7----9----10----9----|-----7----5----7----------| 
|--------------------------|--------------------------|--------------------------|--------------------------| 
|--------------------------|--------------------------|--------------------------|--------------------------| 
|--------------------------|--------------------------|--------------------------|--------------------------| 
|--------------------------|--------------------------|--------------------------|--------------------------| 

| Guitar I 
|  E  E   E  E  E  E  E  E     E  E  E  E  E  E  E  E     E  E  E  E  E  E  E  E     E  E   E  E  E  E  E  E    
|---------------0-----------|--------0-----------------|--0-----------0-----0-----|---------------0-----------| 
|--------10-----------------|--9-----------------7-----|--------------------------|--------10-----------------| 
|--6------------------6-----|--------------6-----------|--------6-----------------|--6------------------6-----| 
|-----7------7-----7-----7--|-----7-----7-----7-----7--|-----7-----7-----7-----7--|-----7------7-----7-----7--| 
|---------------------------|--------------------------|--------------------------|---------------------------| 
|---------------------------|--------------------------|--------------------------|---------------------------| 
|---------------------------|--------------------------|--------------------------|---------------------------| 
| 
| Guitar III 
|   Q     H         Q           H         Q     Q          Q     Q     H              Q     H         Q     
|--------17-----------------|--16--------------14------|---L----------12----------|--------17-----------------| 
|--14--------------14-------|------------14------------|--------14----------------|--14--------------14-------| 
|---------------------------|--------------------------|--------------------------|---------------------------| 
|---------------------------|--------------------------|--------------------------|---------------------------| 
|---------------------------|--------------------------|--------------------------|---------------------------| 
|---------------------------|--------------------------|--------------------------|---------------------------| 


| Guitar I 
|  E  E  E  E  E  E  E  E     E  E  E  E  E  E  E  E     E  E  E  E  E  E  E  E     E  E  E  E  E  E  E  E    
|--------0-----------------|--0-----------0-----0-----|-----------2--------------|-----2-----------------2--| 
|--9-----------------7-----|--------------------------|-----2--------2--------2--|--------2--------2--------| 
|--------------6-----------|--------6-----------------|-----------------2--------|-----------2--------------| 
|-----7-----7-----7-----7--|-----7-----7-----7-----7--|--0-----0-----------0-----|--0-----------0-----0-----| 
|--------------------------|--------------------------|--------------------------|--------------------------| 
|--------------------------|--------------------------|--------------------------|--------------------------| 
|--------------------------|--------------------------|--------------------------|--------------------------| 
| 
| Guitar II 
|                                                           Q    Q    Q    Q          Q    Q     Q    Q      
|--------------------------|--------------------------|-----9----7----5----4-----|----5----7-----9----7-----| 
|--------------------------|--------------------------|----10----9----7----5-----|----7----9----10----9-----| 
|--------------------------|--------------------------|--------------------------|--------------------------| 
|--------------------------|--------------------------|--------------------------|--------------------------| 
|--------------------------|--------------------------|--------------------------|--------------------------| 
|--------------------------|--------------------------|--------------------------|--------------------------| 
| 
| Guitar III 
|   H         Q     Q          Q     Q     H              Q    Q    Q    Q          Q    Q     Q    Q      
|--16--------------14------|---L----------12----------|---9----7----5----4-------|--5----7-----9----7-------| 
|------------14------------|--------14----------------|--10----9----7----5-------|--7----9----10----9-------| 
|--------------------------|--------------------------|--------------------------|--------------------------| 
|--------------------------|--------------------------|--------------------------|--------------------------| 
|--------------------------|--------------------------|--------------------------|--------------------------| 
|--------------------------|--------------------------|--------------------------|--------------------------| 


| Guitar I 
|  E  E  E  E  E  E  E  E     E  E  E  E  E  E  E  E     E  E  E  E  E  E  E  E     E  E  E  E  E  E  E  E    
|-----------------2--------|-----------2--------------|-----2-----------------2--|-----------------2--------| 
|--2--------2--------2-----|-----2--------2--------2--|--------2--------2--------|--2--------2--------2-----| 
|-----2-----------------2--|-----------------2--------|-----------2--------------|-----2-----------------2--| 
|--------0-----0-----------|--0-----0-----------0-----|--0-----------0-----0-----|--------0-----0-----------| 
|--------------------------|--------------------------|--------------------------|--------------------------| 
|--------------------------|--------------------------|--------------------------|--------------------------| 
|--------------------------|--------------------------|--------------------------|--------------------------| 
| 
| Guitar II 
|     Q    Q    Q    Q           Q    Q    Q    Q          Q    Q     Q    Q          Q    Q    H             
|-----5----4----5----7-----|-----9----7----5----4-----|----5----7-----9----7-----|----5----4----5-----------| 
|-----7----5----7----9-----|----10----9----7----5-----|----7----9----10----9-----|----7----5----7-----------| 
|--------------------------|--------------------------|--------------------------|--------------------------| 
|--------------------------|--------------------------|--------------------------|--------------------------| 
|--------------------------|--------------------------|--------------------------|--------------------------| 
|--------------------------|--------------------------|--------------------------|--------------------------| 
| 
| Guitar III 
|   Q    Q    Q    Q            Q    Q    Q    Q          Q    Q     Q    Q          Q     Q     H          
|---5----4----5----7-------|----9----7----5----4------|---5----7-----9----7------|--12----10-----9----------| 
|---7----5----7----9-------|---10----9----7----5------|---7----9----10----9------|--14----12----10----------| 
|--------------------------|--------------------------|--------------------------|--------------------------| 
|--------------------------|--------------------------|--------------------------|--------------------------| 
|--------------------------|--------------------------|--------------------------|--------------------------| 
|--------------------------|--------------------------|--------------------------|--------------------------| 


| Guitar I 
|  Q    Q    E  E  Q        H.            Q       Q    Q    E  E  Q       Q    Q    E  E  Q      
|-----------------------|----------------------|-----------------------|-----------------------| 
|-----------------------|----------------------|-----------------------|-----------------------| 
|-----------------------|----------------------|-----------------------|-----------------------| 
|--9----9----9--9--9----|--12------------12----|--7----7----7--7--7----|--4----4----4--4--4----| 
|--9----9----9--9--9----|--12------------12----|--7----7----7--7--7----|--4----4----4--4--4----| 
|--7----7----7--7--7----|--10------------10----|--5----5----5--5--5----|--2----2----2--2--2----| 
|-----------------------|----------------------|-----------------------|-----------------------| 
| 
| Guitar II 
|                                                                         H        E  E  E  E    
|-----------------------|----------------------|-----------------------|-----------------------| 
|-----------------------|----------------------|-----------------------|-----------------------| 
|-----------------------|----------------------|-----------------------|-----------------------| 
|-----------------------|----------------------|-----------------------|--------------4--4--4--| 
|-----------------------|----------------------|-----------------------|-----------------------| 
|-----------------------|----------------------|-----------------------|-----------------------| 


| Guitar I 
|  Q    Q    E  E  Q        H.            Q       Q    Q    E  E  Q       Q    Q    E  E  Q      
|-----------------------|----------------------|-----------------------|-----------------------| 
|-----------------------|----------------------|-----------------------|-----------------------| 
|-----------------------|----------------------|-----------------------|-----------------------| 
|--9----9----9--9--9----|--12------------12----|--7----7----7--7--7----|--4----4----4--4--4----| 
|--9----9----9--9--9----|--12------------12----|--7----7----7--7--7----|--4----4----4--4--4----| 
|--7----7----7--7--7----|--10------------10----|--5----5----5--5--5----|--2----2----2--2--2----| 
|-----------------------|----------------------|-----------------------|-----------------------| 
| 
| Guitar II 
|      W                   H       E  E  E  E     Q.   S  S Q    E  E     H        E  E  E  E   
|-----------------------|----------------------|-----------------------|-----------------------| 
|-----------------------|----------------------|-----------------------|-----------------------| 
|-----------------------|----------------------|-----------------------|-----------------------| 
|------4----------------|--L----------4--4--4--|--4----4s-7-7----9-----|-----------------------| 
|-----------------------|----------------------|--------------------9--|--L-----------9--9--9--| 
|-----------------------|----------------------|-----------------------|-----------------------| 


| Guitar I 
|  Q    Q    E  E  Q        H.            Q       Q    Q    E  E  Q       Q    Q    E  E  Q      
|-----------------------|----------------------|-----------------------|-----------------------| 
|-----------------------|----------------------|-----------------------|-----------------------| 
|-----------------------|----------------------|-----------------------|-----------------------| 
|--9----9----9--9--9----|--12------------12----|--7----7----7--7--7----|--4----4----4--4--4----| 
|--9----9----9--9--9----|--12------------12----|--7----7----7--7--7----|--4----4----4--4--4----| 
|--7----7----7--7--7----|--10------------10----|--5----5----5--5--5----|--2----2----2--2--2----| 
|-----------------------|----------------------|-----------------------|-----------------------| 
| 
| Guitar II 
|      W                       W                   S  E.  H        Q       H.           S  E  S   
|-----------------------|-----------------------|-----------------------|------------------------| 
|-----------------------|-----------------------|-----------------------|------------------------| 
|-----------------------|-----------------------|------------------6----|--L------------9p-6--9s-| 
|-----------------------|-----------------------|--7s-9---L-------------|------------------------| 
|------9----------------|------L----------------|-----------------------|------------------------| 
|-----------------------|-----------------------|-----------------------|------------------------| 


| Guitar I 
|  Q    Q    E  E  Q        H.            Q       Q    Q    E  E  Q       Q    Q    E  E  Q      
|-----------------------|----------------------|-----------------------|-----------------------| 
|-----------------------|----------------------|-----------------------|-----------------------| 
|-----------------------|----------------------|-----------------------|-----------------------| 
|--9----9----9--9--9----|--12------------12----|--7----7----7--7--7----|--4----4----4--4--4----| 
|--9----9----9--9--9----|--12------------12----|--7----7----7--7--7----|--4----4----4--4--4----| 
|--7----7----7--7--7----|--10------------10----|--5----5----5--5--5----|--2----2----2--2--2----| 
|-----------------------|----------------------|-----------------------|-----------------------| 
| 
| Guitar II 
|      W                    H.           Q        H         Q.     E      E  E  H     E  S   S   
|-----------------------|----------------------|-----------------------|-----------------------| 
|-----------------------|----------------------|-----------------------|-----------------------| 
|-----11----------------|----L------------9----|--9---------L------7---|--7--6--6-----L--9s-11-| 
|-----------------------|----------------------|-----------------------|-----------------------| 
|-----------------------|----------------------|-----------------------|-----------------------| 
|-----------------------|----------------------|-----------------------|-----------------------| 


| Guitar I 
|  E  E  E  E  E  E  E  E     E  E  E  E  E  E  E  E     E  E  E  E  E  E  E  E     E  E  E  E  E  E  E  E    
|--------------------------|--------------------------|--------------------------|--------------------------| 
|--------------------------|--------------------------|--------------------------|--------------------------| 
|--------------------------|--0-----------0--------0--|--------------------------|--0-----------0--------0--| 
|--0-----4-----0-----4-----|--------0-----------0-----|--------4-----4-----0-----|--------0-----------0-----| 
|-----2-----2-----2-----2--|-----2-----2-----2--------|--2--2-----2-----2-----2--|-----2-----2-----2--------| 
|--------------------------|--------------------------|--------------------------|--------------------------| 
|--------------------------|--------------------------|--------------------------|--------------------------| 
| 
| Guitar II 
|      W                 
|--------------------------|--------------------------|--------------------------|--------------------------| 
|--------------------------|--------------------------|--------------------------|--------------------------| 
|------11------------------|--------------------------|--------------------------|--------------------------| 
|--------------------------|--------------------------|--------------------------|--------------------------| 
|--------------------------|--------------------------|--------------------------|--------------------------| 
|--------------------------|--------------------------|--------------------------|--------------------------| 


| Guitar I 
|  E  E  E  E  E  E  E  E     E  E  E  E  E  E  E  E     E  E  E  E  E  E  E  E     E  E  E  E  E  E  E  E    
|--------------------------|--------------------------|--------------------------|--------------------------| 
|--------------------------|--------------------------|--------------------------|--------------------------| 
|--------------------------|--------------------------|--------------------------|--------------------------| 
|--------0--------0--------|--0--------0--------------|--------0--------0--------|--0-----------------------| 
|-----0--------0--------0--|--------4-----4-----4-----|-----0--------0--------0--|-----4-----4--4-----4-----| 
|--2--------3--------5-----|-----5-----------5-----5--|--2--------3--------5-----|--------5--------5-----5--| 
|--------------------------|--------------------------|--------------------------|--------------------------| 


| Guitar I 
|  E  E  E  E  E  E  E  E     E  E  E  E  E  E  E  E     E  E  E  E  E  E  E  E     E  E  E  E  E  E  E  E    
|--------------------------|--------------------------|--------------------------|--------------------------| 
|--------------------------|--------------------------|--------------------------|--------------------------| 
|--------------------------|--0-----------0--------0--|--------------------------|--0-----------0--------0--| 
|--0-----4-----0-----4-----|--------0-----------0-----|--------4-----4-----0-----|--------0-----------0-----| 
|-----2-----2-----2-----2--|-----2-----2-----2--------|--2--2-----2-----2-----2--|-----2-----2-----2--------| 
|--------------------------|--------------------------|--------------------------|--------------------------| 
|--------------------------|--------------------------|--------------------------|--------------------------| 
| 
| Guitar II 
|                                                                  |--3--|  |---3---|   |---3---|             
|  H    E  E  E  E     Q    E   Q    Q     E      W            E   S  S  S  E   E   E   E   E   E   E    E   
|-------------------|-------------------------|-------------|-----------------------------------------------| 
|-------------------|-------------------------|-------------|--------------------------15--14--12--10s--12--| 
|-------------6--7--|--9----7--11----9----11--|--11---------|-----11-11-11-11--12--14-----------------------| 
|----------9--------|-----------7----7-----7--|---7---------|-----------------------------------------------| 
|-------------------|-------------------------|-------------|-----------------------------------------------| 
|-------------------|-------------------------|-------------|-----------------------------------------------| 


| Guitar I 
|  E  E  E  E  E  E  E  E     E  E  E  E  E  E  E  E     E  E  E  E  E  E  E  E     E  E  E  E  E  E  E  E    
|--------------------------|--------------------------|--------------------------|--------------------------| 
|--------------------------|--------------------------|--------------------------|--------------------------| 
|--------------------------|--------------------------|--------------------------|--------------------------| 
|--------0--------0--------|--0--------0--------------|--------0--------0--------|--0-----------------------| 
|-----0--------0--------0--|--------4-----4-----4-----|-----0--------0--------0--|-----4-----4--4-----4-----| 
|--2--------3--------5-----|-----5-----------5-----5--|--2--------3--------5-----|--------5--------5-----5--| 
|--------------------------|--------------------------|--------------------------|--------------------------| 
| 
| Guitar II 
|  Q   S   Q.    S  E   E       E  H.           S  S         W                         W                  
|--------------------------|--------------------------|-------------------------|---------------------------| 
|--------------------------|--------------------------|-------------------------|---------------------------| 
|--------------------------|--------------------------|-------------------------|---------------------------| 
|------9s-11-----L-12--11--|----9--7------------------|-------------------------|---------------------------| 
|--------------------------|--------------------9p-7h-|------9------------------|------L--------------------| 
|--------------------------|--------------------------|-------------------------|---------------------------| 


| Guitar I 
|  PM PM PM PM PM PM PM PM    PM PM PM PM PM PM PM PM    PM PM PM PM PM PM PM PM    PM PM PM PM PM PM PM PM   
|  E  E  E  E  E  E  E  E     E  E  E  E  E  E  E  E     E  E  E  E  E  E  E  E     E  E  E  E  E  E  E  E    
|--------------------------|--------------------------|--------------------------|--------------------------| 
|--------------------------|--------------------------|--------------------------|--------------------------| 
|--------------------------|--------------------------|--------------------------|--------------------------| 
|--------------------0--0--|--2--2--------0--0--------|--------------------0--0--|--2--2--------0--0--------| 
|--------2--2--4--4--------|--------4--4--------4--4--|--------2--2--4--4--------|--------4--4--------4--4--| 
|--------------------------|--------------------------|--------------------------|--------------------------| 
|--0--0--------------------|--------------------------|--0--0--------------------|--------------------------| 
| 
| Guitar II 
|  Q  E   E  E   E   E  E    E  E   E   E   E  E   E  E    E  E   E  E   E  E   E  E    E  E   E  E   E  E   Q  
|----------------------12-|-12-14--14--14--14-12--12----|----------------------------|-------------------------| 
|-12-12--14-14--15--15----|--------------------------15-|-15-14--14-14--14-----------|-------------------------| 
|-------------------------|-----------------------------|------------------14--14-16-|-16-11--11-12--11-11--11-| 
|-------------------------|-----------------------------|----------------------------|-------------------------| 
|-------------------------|-----------------------------|----------------------------|-------------------------| 
|-------------------------|-----------------------------|----------------------------|-------------------------| 


| Guitar I 
|  PM PM PM PM PM PM PM PM    PM PM PM PM PM PM PM PM    PM PM PM PM PM PM PM PM    PM PM PM PM PM PM PM PM   
|  E  E  E  E  E  E  E  E     E  E  E  E  E  E  E  E     E  E  E  E  E  E  E  E     E  E  E  E  E  E  E  E    
|--------------------------|--------------------------|--------------------------|--------------------------| 
|--------------------------|--------------------------|--------------------------|--------------------------| 
|--------------------------|--------------------------|--------------------------|--------------------------| 
|--------------------0--0--|--2--2--------0--0--------|--------------------0--0--|--2--2--------0--0--------| 
|--------2--2--4--4--------|--------4--4--------4--4--|--------2--2--4--4--------|--------4--4--------4--4--| 
|--------------------------|--------------------------|--------------------------|--------------------------| 
|--0--0--------------------|--------------------------|--0--0--------------------|--------------------------| 
| 
| Guitar II 
|   E   E   E   E   E   E   Q      E  E  E  E  E  E  Q                                            
|------------------------------|------7--7--7--7--7--7--|------------------------|--------------------------| 
|--12--12--12--15--15--14--14--|--10--------------------|------------------------|--------------------------| 
|------------------------------|------------------------|------------------------|--------------------------| 
|------------------------------|------------------------|------------------------|--------------------------| 
|------------------------------|------------------------|------------------------|--------------------------| 
|------------------------------|------------------------|------------------------|--------------------------| 
| 
| Guitar III 
|                  H.           E  E      E   E   E   E   E   E   E   E      E   E   E   E   E   E   E   E   
|---------------|---------------9--9--|--10--10--12--12--14--14--15--15--|--17--17--15--15--14--14--12--12--| 
|---------------|---------------0--0--|---0---0---0---0---0---0---0---0--|---0---0---0---0---0---0---0---0--| 
|---------------|---------------------|----------------------------------|----------------------------------| 
|---------------|---------------------|----------------------------------|----------------------------------| 
|---------------|---------------------|----------------------------------|----------------------------------| 
|---------------|---------------------|----------------------------------|----------------------------------| 


| Guitar I 
|  E  E  E  E  E  E  E  E     E  E  H.              E  E  E  E  E  E  E  E     E  E  H.             
|--------------------------|---------------------|--------------------------|---------------------| 
|--------------------------|---------------------|--------------------------|---------------------| 
|--------0--------0--------|--0------------------|--------0--------0--------|--0------------------| 
|-----9--------9--------9--|--------9------------|-----9--------9--------9--|--------9------------| 
|--7--------9--------5-----|-----7---------------|--7--------9--------5-----|-----7---------------| 
|--------------------------|---------------------|--------------------------|---------------------| 
|--------------------------|---------------------|--------------------------|---------------------| 
| 
| Guitar III 
|      W       
|-----12-------------------|---------------------|--------------------------|---------------------| 
|------0-------------------|---------------------|--------------------------|---------------------| 
|--------------------------|---------------------|--------------------------|---------------------| 
|--------------------------|---------------------|--------------------------|---------------------| 
|--------------------------|---------------------|--------------------------|---------------------| 
|--------------------------|---------------------|--------------------------|---------------------| 

| Guitar I 
|  E  E  E  E  E  E  E  E     E  E  H.              E  E  E  E  E  E  E  E     E  E  H.             
|--------------------------|---------------------|--------------------------|---------------------| 
|--------------------------|---------------------|--------------------------|---------------------| 
|--------0--------0--------|--0------------------|--------0--------0--------|--0------------------| 
|-----9--------9--------9--|--------9------------|-----9--------9--------9--|--------9------------| 
|--7--------9--------5-----|-----7---------------|--7--------9--------5-----|-----7---------------| 
|--------------------------|---------------------|--------------------------|---------------------| 
|--------------------------|---------------------|--------------------------|---------------------| 


| Guitar I 
|  W                   W                   W                   W                   W                  
|-------------------|-------------------|-------------------|-------------------|-------------------| 
|-------------------|-------------------|-------------------|-------------------|-------------------| 
|-------------------|-------------------|-------------------|-------------------|-------------------| 
|-------------------|-------------------|-------------------|-------------------|-------------------| 
|-------------------|-------------------|-------------------|-------------------|-------------------| 
|-------------------|-------------------|-------------------|-------------------|-------------------| 
|--0----------------|--L----------------|--L----------------|--L----------------|--L----------------| 
| 
| Guitar II 
|     E  S  S  H.      E  E.   E.  H          E  S  S  H.      W                   E  S  S  H.                   
|-------------------|-------------------|-------------------|-------------------|-------------------| 
|-----7p-5h-7-------|--5--5s---3---2----|-----7p-5h-7-------|--L----------------|-----7p-5h-7-------| 
|-------------------|-------------------|-------------------|-------------------|-------------------| 
|-------------------|-------------------|-------------------|-------------------|-------------------| 
|-------------------|-------------------|-------------------|-------------------|-------------------| 
|-------------------|-------------------|-------------------|-------------------|-------------------| 


| Guitar I 
|  W                   W.               Q       W                   W                   W                  
|-------------------|------------------------|-------------------|-------------------|-------------------| 
|-------------------|------------------------|-------------------|-------------------|-------------------| 
|-------------------|------------------------|-------------------|-------------------|-------------------| 
|-------------------|------------------------|-------------------|-------------------|-------------------| 
|-------------------|------------------------|-------------------|-------------------|-------------------| 
|-------------------|------------------------|-------------------|-------------------|-------------------| 
|--L----------------|--L----------------L----|--L----------------|--L----------------|--L----------------| 
| 
| Guitar II 
|                                                                                                  |--3--|   
|  E  E.  E.  E  E.  E.    E  E.  Q    S Q    E   H.   E  S  S  H.    E  E  Q.   Q.         Q.     S  S  S H    
|-----------------------|---------------------------|--------------|----5--5-----3s------|--2------2h-3p-2-L---| 
|--5--5s--3---2--2---3--|--3--3---2----L-2----------|--7p-5h-7-----|---------------------|---------------------| 
|-----------------------|---------------------2s--4-|--------------|---------------------|---------------------| 
|-----------------------|---------------------------|--------------|---------------------|---------------------| 
|-----------------------|---------------------------|--------------|---------------------|---------------------| 
|-----------------------|---------------------------|--------------|---------------------|---------------------| 


| Guitar I 
|  H.              W                   W                Q.        E  E  E  H           W                  
|---------------|-------------------|--------------------------|--------------------|-------------------| 
|---------------|-------------------|--------------------------|--------------------|-------------------| 
|---------------|-------------------|--------------------------|--4--4--4-----------|--2----------------| 
|---------------|-------------------|--------------------------|--4--4--4-----------|--2----------------| 
|---------------|-------------------|--------------------------|--2--2--2-----------|--0----------------| 
|---------------|-------------------|--------------------------|--------------------|-------------------| 
|--L------------|--L----------------|--L----------------L------|--------------------|-------------------| 
| 
| Guitar II 
|  H.              E  S  S  H.         E  E.  E.  E  E.  E.  E  E   E     Q    H      E   
|--L------------|-------------------|----------------------------------|-----------------|--------------| 
|---------------|-----7p-5h-7-------|--5--5---3---2--2---0-------------|-----------------|--------------| 
|---------------|-------------------|------------------------2--2s--4--|--L--------------|--------------| 
|---------------|-------------------|----------------------------------|-----------------|--------------| 
|---------------|-------------------|----------------------------------|-----------------|--------------| 
|---------------|-------------------|----------------------------------|-----------------|--------------| 


| Guitar I 
|  E  S  S  H.              E  E.  E.  E  E.  E.  E  E   E     Q    H        E                    
|------------------------|----------------------------------|-------------------|---------------| 
|-----7p-5h-7------------|--5--5---3---2--2---0-------------|-------------------|---------------| 
|------------------------|------------------------2--2s--4--|--L----------------|---------------| 
|------------------------|----------------------------------|-------------------|---------------| 
|------------------------|----------------------------------|-------------------|---------------| 
|------------------------|----------------------------------|-------------------|---------------| 

  E  E  E  H           W                   E  E  E  H           W                   E  E  E  H          
--------------------|-------------------|--------------------|-------------------|--------------------| 
--------------------|-------------------|--------------------|-------------------|--------------------| 
--4--4--4-----------|-------------------|--4--4--4-----------|--2----------------|--4--4--4-----------| 
--4--4--4-----------|--5----------------|--4--4--4-----------|--2----------------|--4--4--4-----------| 
--2--2--2-----------|--5----------------|--2--2--2-----------|--0----------------|--2--2--2-----------| 
--------------------|--3----------------|--------------------|-------------------|--------------------| 
--------------------|-------------------|--------------------|-------------------|--------------------| 


  E  Q.     E  Q.        E  Q.     E  H           S S  S S S  S S S  S S S  S S E.    
----------------------|------------------------|------------------------------------| 
----------------------|------------------------|------------------------------------| 
----------------------|------------------------|------------------------------------| 
--7--7------5--5------|--7--7------5--5--------|------------------------------------| 
--7--7------5--5------|--7--7------5--5--------|----9p-5---5p-4---4h-5---5h-9---9---| 
--5--5------3--3------|--5--5------3--3--------|------------------------------------| 
----------------------|------------------------|--0------0------0------0------0-----| 


  S S  S S S  S S S  S S S  S S S  E     S S  S S S  S S S  S S S  S S E.    
--------------------------------------|------------------------------------| 
--------------------------------------|------------------------------------| 
--------------------------------------|------------------------------------| 
--------------------------------------|------------------------------------| 
----9p-5---5p-4---4p-0----------------|----9p-5---5p-4---4h-5---5h-9---9---| 
-------------------------0h-5---5h-7--|------------------------------------| 
--0------0------0------0------0-------|--0------0------0------0------0-----| 


  S S  S S S  S S S  S S S  S S S  E     S S  S S S  S S S  S S S  S S E.    
--------------------------------------|------------------------------------| 
--------------------------------------|------------------------------------| 
--------------------------------------|------------------------------------| 
--------------------------------------|------------------------------------| 
----9p-5---5p-4---4p-0----------------|----9p-5---5p-4---4h-5---5h-9---9---| 
-------------------------0h-5---5h-7--|------------------------------------| 
--0------0------0------0------0-------|--0------0------0------0------0-----| 


  S S  S S S  S S S  S S S  S S S  E     S S S S Q    S S S S Q       S S  S S S  S S S  S S S  S S E.    
--------------------------------------|----------------------------|------------------------------------| 
--------------------------------------|----------------------------|------------------------------------| 
--------------------------------------|----------------------------|------------------------------------| 
--------------------------------------|--7-7-7-7------5-5-5-5------|------------------------------------| 
----9p-5---5p-4---4p-0----------------|--7-7-7-7------5-5-5-5------|----9p-5---5p-4---4h-5---5h-9---9---| 
-------------------------0h-5---5h-7--|--5-5-5-5------3-3-3-3------|------------------------------------| 
--0------0------0------0------0-------|----------------------------|--0------0------0------0------0-----| 


  S S  S S S  S S S  S S S  S S S  E     S S  S S S  S S S  S S S  S S E.    
--------------------------------------|------------------------------------| 
--------------------------------------|------------------------------------| 
--------------------------------------|------------------------------------| 
--------------------------------------|------------------------------------| 
----9p-5---5p-4---4p-0----------------|----9p-5---5p-4---4h-5---5h-9---9---| 
-------------------------0h-5---5h-7--|------------------------------------| 
--0------0------0------0------0-------|--0------0------0------0------0-----| 


  S S  S S S  S S S  S S S  S S S  E     S S  S S S  S S S  S S S  S S E.    
--------------------------------------|------------------------------------| 
--------------------------------------|------------------------------------| 
--------------------------------------|------------------------------------| 
--------------------------------------|------------------------------------| 
----9p-5---5p-4---4p-0----------------|----9p-5---5p-4---4h-5---5h-9---9---| 
-------------------------0h-5---5h-7--|------------------------------------| 
--0------0------0------0------0-------|--0------0------0------0------0-----| 


  S S  S S S  S S S  S S S  S S S  E     S S S S Q    S S S S Q       S S S S Q    S S S S Q      
--------------------------------------|----------------------------|----------------------------| 
--------------------------------------|----------------------------|----------------------------| 
--------------------------------------|----------------------------|----------------------------| 
--------------------------------------|--7-7-7-7------5-5-5-5------|--7-7-7-7------5-5-5-5------| 
----9p-5---5p-4---4p-0----------------|--7-7-7-7------5-5-5-5------|--7-7-7-7------5-5-5-5------| 
-------------------------0h-5---5h-7--|--5-5-5-5------3-3-3-3------|--5-5-5-5------3-3-3-3------| 
--0------0------0------0------0-------|----------------------------|----------------------------| 


  S S S S Q    S S S S Q       
----------------------------|| 
---------------7-7-7-7------|| 
--6-6-6-6-------------------|| 
--7-7-7-7------5-5-5-5------|| 
--7-7-7-7------5-5-5-5------|| 
--5-5-5-5------3-3-3-3------|| 
----------------------------||  
		  

Full key step upFull key step up
Half key step upHalf key step up
Half key step downHalf key step down
Full key step downFull key step down
hide glossary

See also:

tabs Skrillex - Make It Burn Dem tabs Kaskade - Turn It Down tabs Shiny Toy Guns - Ghost Town tabs Fedde Le Grand - Put Your Hands Up 4 Detroit tabs Buckethead - Nightrain (solo) tabs Buckethead - Shaded Ray
e-chords

Other versions:

tabs Buckethead - Inward Journey
auto scroll beats size up size down change color hide chords drawings
tab show chords e-chords YouTube Clip e-chords hide all tabs e-chords go to top tab

share