Bryan Adams

Back To You Unplugged

Bryan Adams

tabs

by  GUSTSILVA

save to print version add songbook text version e-mail correct tuner
chordsukulelecavacokeyboardtabbassdrumsharmonicaflute Guitar Pro
close

there isn't a video lesson for this song

chords

Back To You Unplugged

	  		 Intro 
  Q=126 
  C            Am                F                 D7sus4/G     Gadd9 
 4/4 
  Gtr I (Ac. Gtr.) 
  Q  Q  E E +E E   +Q  Q  E E +E E   +Q  Q  E E +E E   +Q  Q  E E +Q 
  |  |  | |  | |    |  |  | |  | |    |  |  | |  | |    |  |  | |  | 
  /  /  / /  / /    /  /  / /  / /    /  /  / /  / /    /  /  / /  / 

  Gtr II (Dobro w/ slide) 
  W                 W                 W                 H     E E  E E 
|----------------|-----------------|-----------------|----------3S=5S8--| 
|----------------|-----------------|-----------------|------------------| 
|----------------|-----------------|-----------------|------------------| 
|----------------|-----------------|-----------------|------------------| 
|----------------|-----------------|-----------------|------------------| 
|----------------|-----------------|-----------------|------------------| 


  C               Am                    F 
  Q  Q   E  E  +E E   +Q   Q   E  E +E  E 
  |  |   |  |   | |    |   |   |  |  |  | 
  /  /   /  /   / /    /   /   /  /  /  / 

  ~               ~~~~~~~~ 
  H     +E  E   E E   +H      +E  E +E  E 
|-8-----(8)-7\----5-|-(5)-----(5)-5-(5)---| 
|---------------5---|-------------------5S| 
|-------------------|---------------------| 
|-------------------|---------------------| 
|-------------------|---------------------| 
|-------------------|---------------------| 


                D7sus4/G       Gadd9 
  +Q  Q  E E +E E   +Q   Q   E E +Q 
   |  |  | |  | |    |   |   | |  | 
   /  /  / /  / /    /   /   / /  / 

   Q  Q  E E  E E    E E E E E E  E E 
|---------------8-|--8S7-7S5-5S3----0-|| 
|--6--6--6S5------|-----------------1-|| 
|-----------------|-----------------0-|| 
|-----------------|-------------------|| 
|-----------------|-------------------|| 
|-----------------|-------------------|| 


 1st Verse 
  C             Am                   F                    D7sus4/G     Gadd9 
  Q  Q  E E +E  E   +Q  Q    E E +E  E   +Q  Q    E E +E  E   +Q  Q  E E +Q 
  |  |  | |  |  |    |  |    | |  |  |    |  |    | |  |  |    |  |  | |  | 
  /  /  / /  /  /    /  /    / /  /  /    /  /    / /  /  /    /  /  / /  / 

  Q  Q  E E +E  E    Q  E. S E E +E  E    Q  E. S E E +E  E    Q  Q  E E  Q 
|-0--0--0-0-(0)-0-|--0--0--0---0-(0)-1-|--1--1--1-1-1-(1)-3-|-----3----3--3--| 
|-1--1--1-1-(1)-1-|--1--1--1---1-(1)-1-|--1--1--1-1-1-(1)-1-|-----1--1-0--0--| 
|-0--0--0-0-(0)-2-|--2--2--2---2-(2)-2-|--2--2--2-2-2-(2)-0-|--0--0--0-0--0--| 
|-2--2--2-2-(2)-2-|--2--2--2-2-------3-|--3--3--3-3-3-(3)-0-|--0--0--0-0--0--| 
|---------------0-|--0--0--0-0---------|--------------------|----------------| 
|-----------------|--------------------|--------------------|----------------| 


  C             Am                   F                    D7sus4/G     Gadd9 
  Q  Q  E E +E  E   +Q  Q    E E +E  E   +Q  Q    E E +E  E   +Q  Q  E E +Q 
  |  |  | |  |  |    |  |    | |  |  |    |  |    | |  |  |    |  |  | |  | 
  /  /  / /  /  /    /  /    / /  /  /    /  /    / /  /  /    /  /  / /  / 

  Q  Q  E E +E  E    Q  E. S E E +E  E    Q  E. S E E +E  E    Q  Q  E E  Q 
|-0--0--0-0-(0)-0-|--0--0--0---0-(0)-1-|--1--1--1-1-1-(1)-3-|-----3----3--3--|| 
|-1--1--1-1-(1)-1-|--1--1--1---1-(1)-1-|--1--1--1-1-1-(1)-1-|-----1--1-0--0--|| 
|-0--0--0-0-(0)-2-|--2--2--2---2-(2)-2-|--2--2--2-2-2-(2)-0-|--0--0--0-0--0--|| 
|-2--2--2-2-(2)-2-|--2--2--2-2-------3-|--3--3--3-3-3-(3)-0-|--0--0--0-0--0--|| 
|---------------0-|--0--0--0-0---------|--------------------|----------------|| 
|-----------------|--------------------|--------------------|----------------|| 


 Pre-Chorus 
  C             Am                   F                    D7sus4/G     Gadd9 
  Q  Q  E E +E  E   +Q  Q    E E +E  E   +Q  Q    E E +E  E   +Q  Q  E E +Q 
  |  |  | |  |  |    |  |    | |  |  |    |  |    | |  |  |    |  |  | |  | 
  /  /  / /  /  /    /  /    / /  /  /    /  /    / /  /  /    /  /  / /  / 

  Q  Q  E E +E  E    Q  E. S E E +E  E    Q  E. S E E +E  E    Q  Q  E E  Q 
|-0--0--0-0-(0)-0-|--0--0--0---0-(0)-1-|--1--1--1-1-1-(1)-3-|-----3----3--3--| 
|-1--1--1-1-(1)-1-|--1--1--1---1-(1)-1-|--1--1--1-1-1-(1)-1-|-----1--1-0--0--| 
|-0--0--0-0-(0)-2-|--2--2--2---2-(2)-2-|--2--2--2-2-2-(2)-0-|--0--0--0-0--0--| 
|-2--2--2-2-(2)-2-|--2--2--2-2-------3-|--3--3--3-3-3-(3)-0-|--0--0--0-0--0--| 
|---------------0-|--0--0--0-0---------|--------------------|----------------| 
|-----------------|--------------------|--------------------|----------------| 


  F                                 E7 
  Q  E. S E E E E   +E  E Q  +E E E E   Q  Q    E E E E   +E  E E E E E E E 
  |  |  | | | | |    |  | |   | | | |   |  |    | | | |    |  | | | | | | | 
  /  /  / / / / /    /  / /   / / / /   /  /    / / / /    /  / / / / / / / 

  Q  E. S E E E E   +E  E Q   E E E E   Q  E. S E E E E   +E  E Q   E E Q 
|-1--1--1-1-1-1-1-|-(1)-1-1---1-1-1-0-|----0--0-0-0-0-0-|-(0)-0-0---0-0-0---|| 
|-1--1--1-1-1-1-1-|-(1)-1-1---1-1-1-0-|----0--0-0-0-0-0-|-(0)-0-0---0-0-0---|| 
|-2--2----2-2-2-2-|-(2)-2-2---2-2-2-1-|----1--1-1-1-1-1-|-(1)-1-1---1-1-1---|| 
|-3--3----3-3-3-3-|-(3)-3-3---3-3-3---|-0-------0-0-0-0-|-(0)-0-0---0-0-0---|| 
|-----------------|-------------------|-2-------2-2-2-2-|-(2)-2-2---2-2-2---|| 
|-----------------|-------------------|-0-------0-0-0-0-|-(0)-0-0---0-0-0---|| 


 Chorus 
  Am            F                      D7sus4/G    Gadd9 
  Q  Q  E E +E  E   +E  E Q  E E Q     Q  Q  E E E E   +S S E Q  E E E E 
  |  |  | |  |  |    |  | |  | | |     |  |  | | | |    |   | |  | | | | 
  /  /  / /  /  /    /  / /  / / /     /  /  / / / /    /   / /  / / / / 

  Q  Q  E E +E  E   +E  E Q  Q   E E   Q  Q  E E E E    Q     Q  E E E E 
|-0--0--0-0-(0)-1-|-(1)-1-1--1---1-1-|-3--3--3-3-3-3-|--3-----3--3-3-3-3--| 
|-1--1--1-1-(1)-1-|-(1)-1-1--1---1-1-|-1--1--1-1-1-0-|--0-----0--0-0-0-0--| 
|-2--2--2-2-(2)-2-|-(2)-2-2--2---2-2-|-0--0--0-0-0-0-|--0-----0--0-0-0-0--| 
|-2--2--2-2-(2)-3-|-(3)-3-3--3---3-3-|-0--0--0-0-0-0-|--0-----0--0-0-0-0--| 
|-0--0--0-0-(0)---|------------------|---------------|--------------------| 
|-----------------|------------------|---------------|--------------------| 


  Am            F                      D7sus4/G    Gadd9 
  Q  Q  E E +E  E   +E  E Q  E E Q     Q  Q  E E E E   +S S E Q  E E E E 
  |  |  | |  |  |    |  | |  | | |     |  |  | | | |    |   | |  | | | | 
  /  /  / /  /  /    /  / /  / / /     /  /  / / / /    /   / /  / / / / 

  Q  Q  E E +E  E   +E  E Q  Q   E E   Q  Q  E E E E    Q     Q  E E E E 
|-0--0--0-0-(0)-1-|-(1)-1-1--1---1-1-|-3--3--3-3-3-3-|--3-----3--3-3-3-3--| 
|-1--1--1-1-(1)-1-|-(1)-1-1--1---1-1-|-1--1--1-1-1-0-|--0-----0--0-0-0-0--| 
|-2--2--2-2-(2)-2-|-(2)-2-2--2---2-2-|-0--0--0-0-0-0-|--0-----0--0-0-0-0--| 
|-2--2--2-2-(2)-3-|-(3)-3-3--3---3-3-|-0--0--0-0-0-0-|--0-----0--0-0-0-0--| 
|-0--0--0-0-(0)---|------------------|---------------|--------------------| 
|-----------------|------------------|---------------|--------------------| 


  Em           Am                    Em                   Am                 Dm 
  Q  Q  E E +E E   +E E Q    E E +E  E   +Q  Q    E E +E  E   +Q  Q  E E +E  E 
  |  |  | |  | |    | | |    | |  |  |    |  |    | |  |  |    |  |  | |  |  | 
  /  /  / /  / /    / / /    / /  /  /    /  /    / /  /  /    /  /  / /  /  / 

  Q  Q  Q    E E    Q   E. S E E +E  E    Q  E. S E E +E  E    Q  Q  E E +E  E 
|-0--0--0----0-0-|--0---0--0---0-(0)-0-|-----0--0---0-(0)-0-|--0--0--0-0-(0)---| 
|-0--0--0----0-1-|--1---1--1---1-(1)-0-|-----0--0---0-(0)-1-|--1--1--1-1-(1)---| 
|-0--0--0----0-2-|--2---2--2---2-(2)-0-|-----0--0---0-(0)-2-|--2--2--2-2-(2)-2-| 
|-2--2--2----2---|--2---2--2-2---------|--------------------|--2--2--2-2-(2)-0-| 
|-2--2--2----2---|--0---0--0-0---------|--2-------2---------|--0--0--0-0-(0)---| 
|-0--0--0----0---|---------------------|--0-------0---------|------------------| 


  Dm                                  D7sus4/G 
  Q  Q  E E  E  E    Q   Q   E  E +E  E 
  |  |  | |  |  |    |   |   |  |  |  | 
  /  /  / /  /  /    /   /   /  /  /  / 

  Q  Q  E E +E  E   +Q   Q  +E  E +E  E 
|----1--1-1-(1)-1-|-(1)--1--(1)-1-(1)-3-| 
|----3--3-3-(3)-3-|-(3)--3--(3)-3-(3)-1-| 
|-2--2--2-2-(2)-2-|-(2)--2--(2)-2-(2)-0-| 
|-0--0--0-0-(0)-0-|-(0)--0--(0)-0-(0)-0-| 
|-----------------|---------------------| 
|-----------------|---------------------| 


                       Gadd9 
  +Q  Q  E E +S  S E   H    +Q  +S S E 
   |  |  | |  |    |   |     |   | 
   /  /  / /  /    /   /     /   / 

   Q  Q  E E +Q        H     Q   E   E 
|--3--3--3-3-(3)-----|---------------3-|| 
|--1--1--1-1-(1)-----|-----------------|| 
|--0--0--0-0-(0)-----|-----------------|| 
|--0--0--0-0-(0)-----|-----------------|| 
|--------------------|-----------------|| 
|--------------------|-----------------|| 


 Interlude 
  C               Am                   F 
  Q  Q   E  E  +E E   +Q   Q   E  E +E E 
  |  |   |  |   | |    |   |   |  |  | | 
  /  /   /  /   / /    /   /   /  /  / / 

  ~               ~~~~~~~~ 
  H     +E  E   E E   +H      +E  E  E E 
|-8-----(8)-7\----5-|-(5)-----(5)-5S=3---| 
|---------------5---|------------------5-| 
|-------------------|--------------------| 
|-------------------|--------------------| 
|-------------------|--------------------| 
|-------------------|--------------------| 


                  D7sus4/G       Gadd9 
  +Q   Q   E E +E E   +Q   Q   E E +Q 
   |   |   | |  | |    |   |   | |  | 
   /   /   / /  / /    /   /   / /  / 

   E E E E E E  E E    E E E E E E  E E 
|-----------------8-|--8S7-7S5-5S3-------|| 
|--6-6-6-6-6S5------|-----------------4\-|| 
|-------------------|--------------------|| 
|-------------------|--------------------|| 
|-------------------|--------------------|| 
|-------------------|--------------------|| 


 2nd Verse 
  C             Am                   F                    D7sus4/G     Gadd9 
  Q  Q  E E +E  E   +Q  Q    E E +E  E   +Q  Q    E E +E  E   +Q  Q  E E +Q 
  |  |  | |  |  |    |  |    | |  |  |    |  |    | |  |  |    |  |  | |  | 
  /  /  / /  /  /    /  /    / /  /  /    /  /    / /  /  /    /  /  / /  / 

  Q  Q  E E +E  E    Q  E. S E E +E  E    Q  E. S E E +E  E    Q  Q  E E  Q 
|-0--0--0-0-(0)-0-|--0--0--0---0-(0)-1-|--1--1--1-1-1-(1)-3-|-----3----3--3--| 
|-1--1--1-1-(1)-1-|--1--1--1---1-(1)-1-|--1--1--1-1-1-(1)-1-|-----1--1-0--0--| 
|-0--0--0-0-(0)-2-|--2--2--2---2-(2)-2-|--2--2--2-2-2-(2)-0-|--0--0--0-0--0--| 
|-2--2--2-2-(2)-2-|--2--2--2-2-------3-|--3--3--3-3-3-(3)-0-|--0--0--0-0--0--| 
|---------------0-|--0--0--0-0---------|--------------------|----------------| 
|-----------------|--------------------|--------------------|----------------| 


  C             Am                   F                    D7sus4/G     Gadd9 
  Q  Q  E E +E  E   +Q  Q    E E +E  E   +Q  Q    E E +E  E   +Q  Q  E E +Q 
  |  |  | |  |  |    |  |    | |  |  |    |  |    | |  |  |    |  |  | |  | 
  /  /  / /  /  /    /  /    / /  /  /    /  /    / /  /  /    /  /  / /  / 

  Q  Q  E E +E  E    Q  E. S E E +E  E    Q  E. S E E +E  E    Q  Q  E E  Q 
|-0--0--0-0-(0)-0-|--0--0--0---0-(0)-1-|--1--1--1-1-1-(1)-3-|-----3----3--3--|| 
|-1--1--1-1-(1)-1-|--1--1--1---1-(1)-1-|--1--1--1-1-1-(1)-1-|-----1--1-0--0--|| 
|-0--0--0-0-(0)-2-|--2--2--2---2-(2)-2-|--2--2--2-2-2-(2)-0-|--0--0--0-0--0--|| 
|-2--2--2-2-(2)-2-|--2--2--2-2-------3-|--3--3--3-3-3-(3)-0-|--0--0--0-0--0--|| 
|---------------0-|--0--0--0-0---------|--------------------|----------------|| 
|-----------------|--------------------|--------------------|----------------|| 


 Pre-Chorus 
  C             Am                   F                    D7sus4/G     Gadd9 
  Q  Q  E E +E  E   +Q  Q    E E +E  E   +Q  Q    E E +E  E   +Q  Q  E E +Q 
  |  |  | |  |  |    |  |    | |  |  |    |  |    | |  |  |    |  |  | |  | 
  /  /  / /  /  /    /  /    / /  /  /    /  /    / /  /  /    /  /  / /  / 

  Q  Q  E E +E  E    Q  E. S E E +E  E    Q  E. S E E +E  E    Q  Q  E E  Q 
|-0--0--0-0-(0)-0-|--0--0--0---0-(0)-1-|--1--1--1-1-1-(1)-3-|-----3----3--3--| 
|-1--1--1-1-(1)-1-|--1--1--1---1-(1)-1-|--1--1--1-1-1-(1)-1-|-----1--1-0--0--| 
|-0--0--0-0-(0)-2-|--2--2--2---2-(2)-2-|--2--2--2-2-2-(2)-0-|--0--0--0-0--0--| 
|-2--2--2-2-(2)-2-|--2--2--2-2-------3-|--3--3--3-3-3-(3)-0-|--0--0--0-0--0--| 
|---------------0-|--0--0--0-0---------|--------------------|----------------| 
|-----------------|--------------------|--------------------|----------------| 


  F                                 E7 
  Q  E. S E E E E   +E  E Q  +E E E E   Q  Q    E E E E   +E  E E E E E E E 
  |  |  | | | | |    |  | |   | | | |   |  |    | | | |    |  | | | | | | | 
  /  /  / / / / /    /  / /   / / / /   /  /    / / / /    /  / / / / / / / 

  Q  E. S E E E E   +E  E Q   E E E E   Q  E. S E E E E   +E  E Q   E E Q 
|-1--1--1-1-1-1-1-|-(1)-1-1---1-1-1-0-|----0--0-0-0-0-0-|-(0)-0-0---0-0-0---|| 
|-1--1--1-1-1-1-1-|-(1)-1-1---1-1-1-0-|----0--0-0-0-0-0-|-(0)-0-0---0-0-0---|| 
|-2--2----2-2-2-2-|-(2)-2-2---2-2-2-1-|----1--1-1-1-1-1-|-(1)-1-1---1-1-1---|| 
|-3--3----3-3-3-3-|-(3)-3-3---3-3-3---|-0-------0-0-0-0-|-(0)-0-0---0-0-0---|| 
|-----------------|-------------------|-2-------2-2-2-2-|-(2)-2-2---2-2-2---|| 
|-----------------|-------------------|-0-------0-0-0-0-|-(0)-0-0---0-0-0---|| 


 Chorus 
  Am            F                      D7sus4/G    Gadd9 
  Q  Q  E E +E  E   +E  E Q  E E Q     Q  Q  E E E E   +S S E Q  E E E E 
  |  |  | |  |  |    |  | |  | | |     |  |  | | | |    |   | |  | | | | 
  /  /  / /  /  /    /  / /  / / /     /  /  / / / /    /   / /  / / / / 

  Q  Q  E E +E  E   +E  E Q  Q   E E   Q  Q  E E E E    Q     Q  E E E E 
|-0--0--0-0-(0)-1-|-(1)-1-1--1---1-1-|-3--3--3-3-3-3-|--3-----3--3-3-3-3--| 
|-1--1--1-1-(1)-1-|-(1)-1-1--1---1-1-|-1--1--1-1-1-0-|--0-----0--0-0-0-0--| 
|-2--2--2-2-(2)-2-|-(2)-2-2--2---2-2-|-0--0--0-0-0-0-|--0-----0--0-0-0-0--| 
|-2--2--2-2-(2)-3-|-(3)-3-3--3---3-3-|-0--0--0-0-0-0-|--0-----0--0-0-0-0--| 
|-0--0--0-0-(0)---|------------------|---------------|--------------------| 
|-----------------|------------------|---------------|--------------------| 


  Am            F                      D7sus4/G    Gadd9 
  Q  Q  E E +E  E   +E  E Q  E E Q     Q  Q  E E E E   +S S E Q  E E E E 
  |  |  | |  |  |    |  | |  | | |     |  |  | | | |    |   | |  | | | | 
  /  /  / /  /  /    /  / /  / / /     /  /  / / / /    /   / /  / / / / 

  Q  Q  E E +E  E   +E  E Q  Q   E E   Q  Q  E E E E    Q     Q  E E E E 
|-0--0--0-0-(0)-1-|-(1)-1-1--1---1-1-|-3--3--3-3-3-3-|--3-----3--3-3-3-3--| 
|-1--1--1-1-(1)-1-|-(1)-1-1--1---1-1-|-1--1--1-1-1-0-|--0-----0--0-0-0-0--| 
|-2--2--2-2-(2)-2-|-(2)-2-2--2---2-2-|-0--0--0-0-0-0-|--0-----0--0-0-0-0--| 
|-2--2--2-2-(2)-3-|-(3)-3-3--3---3-3-|-0--0--0-0-0-0-|--0-----0--0-0-0-0--| 
|-0--0--0-0-(0)---|------------------|---------------|--------------------| 
|-----------------|------------------|---------------|--------------------| 


  Em           Am                    Em                   Am                 Dm 
  Q  Q  E E +E E   +E E Q    E E +E  E   +Q  Q    E E +E  E   +Q  Q  E E +E  E 
  |  |  | |  | |    | | |    | |  |  |    |  |    | |  |  |    |  |  | |  |  | 
  /  /  / /  / /    / / /    / /  /  /    /  /    / /  /  /    /  /  / /  /  / 

  Q  Q  Q    E E    Q   E. S E E +E  E    Q  E. S E E +E  E    Q  Q  E E +E  E 
|-0--0--0----0-0-|--0---0--0---0-(0)-0-|-----0--0---0-(0)-0-|--0--0--0-0-(0)---| 
|-0--0--0----0-1-|--1---1--1---1-(1)-0-|-----0--0---0-(0)-1-|--1--1--1-1-(1)---| 
|-0--0--0----0-2-|--2---2--2---2-(2)-0-|-----0--0---0-(0)-2-|--2--2--2-2-(2)-2-| 
|-2--2--2----2---|--2---2--2-2---------|--------------------|--2--2--2-2-(2)-0-| 
|-2--2--2----2---|--0---0--0-0---------|--2-------2---------|--0--0--0-0-(0)---| 
|-0--0--0----0---|---------------------|--0-------0---------|------------------| 


  Dm                                  D7sus4/G 
  Q  Q  E E  E  E    Q   Q   E  E +E  E 
  |  |  | |  |  |    |   |   |  |  |  | 
  /  /  / /  /  /    /   /   /  /  /  / 

  Q  Q  E E +E  E   +Q   Q  +E  E +E  E 
|----1--1-1-(1)-1-|-(1)--1--(1)-1-(1)-3-| 
|----3--3-3-(3)-3-|-(3)--3--(3)-3-(3)-1-| 
|-2--2--2-2-(2)-2-|-(2)--2--(2)-2-(2)-0-| 
|-0--0--0-0-(0)-0-|-(0)--0--(0)-0-(0)-0-| 
|-----------------|---------------------| 
|-----------------|---------------------| 


                     Gadd9 
  Q  Q   +S  S E  E  E   +H     +Q  +S S E 
  |  |    |    |  |  |    |      |   | 
  /  /    /    /  /  /    /      /   / 

  Q  E E +E    E +E  E   +H      Q   Q 
|-3--3-3-(3)---3-(3)-3-|-(3)---------3-----|| 
|-1--1-1-(1)---1-(1)-0-|-(0)---------------|| 
|-0--0-0-(0)---0-(0)-0-|-(0)---------------|| 
|-0--0---------0-(0)-0-|-(0)---------------|| 
|----------------------|-------------------|| 
|----------------------|-------------------|| 


 Guitar Solo 
  C               Am                        F 
  Q  Q   E  E  +E E   +Q       Q    E  E +E E 
  |  |   |  |   | |    |       |    |  |  | | 
  /  /   /  /   / /    /       /    /  /  / / 

  ~~~~~~~~~~           ~~~~~~~~~~~~~~~~ 
  Q  Q  +E  E   E E   +E  +E  +Q   +E  E  E E 
|-8--8--(8)-7\----5-|-(5)-(5)-(5)--(5)-5S=3---| 
|---------------5---|-----------------------5-| 
|-------------------|-------------------------| 
|-------------------|-------------------------| 
|-------------------|-------------------------| 
|-------------------|-------------------------| 


                     D7sus4/G        Gadd9 
  +Q   Q   E E +E    E   +Q    Q   E E   +Q 
   |   |   | |  |    |    |    |   | |    | 
   /   /   / /  /    /    /    /   / /    / 

                            ~~~~~~ 
                                   |---3----| 
   E E E E E E +E  a E    E E +Q   Q   Q    Q 
|----------------------|----------------------| 
|--6-6-6-6-6S5-(5)-3s5-|----3-(3)--5---6----8-| 
|----------------------|----------------------| 
|----------------------|----------------------| 
|----------------------|----------------------| 
|----------------------|----------------------| 


  C                Am                          F 
  Q   Q   E E +E    E   +Q   Q        E  E +E  E 
  |   |   | |  |    |    |   |        |  |  |  | 
  /   /   / /  /    /    /   /        /  /  /  / 

                                  ~~~~~~~ 
  Q   Q   Q    E a  E    E E E a  E  +Q     E  E 
|-8--10--12S===8-8s10-|-10-8-------------------8-| 
|---------------------|------8-8s10-(10)----5/---| 
|---------------------|--------------------------| 
|---------------------|--------------------------| 
|---------------------|--------------------------| 
|---------------------|--------------------------| 


                   D7sus4/G         Gadd9 
  +Q   Q   E E +E  E   +Q   Q    E  E +Q 
   |   |   | |  |  |    |   |    |  |  | 
   /   /   / /  /  /    /   /    /  /  / 

                              ~~~~~~ 
   E E E E E E  E  E    E E E E +H 
|--8S7-7S5-5S3--3\---|--------------------|| 
|------------------6-|--6S5---------------|| 
|--------------------|------5-------------|| 
|--------------------|--------5-(5)-------|| 
|--------------------|--------------------|| 
|--------------------|--------------------|| 


 Pre-Chorus 
  C             Am                   F                    D7sus4/G     Gadd9 
  Q  Q  E E +E  E   +Q  Q    E E +E  E   +Q  Q    E E +E  E   +Q  Q  E E +Q 
  |  |  | |  |  |    |  |    | |  |  |    |  |    | |  |  |    |  |  | |  | 
  /  /  / /  /  /    /  /    / /  /  /    /  /    / /  /  /    /  /  / /  / 

  Q  Q  E E +E  E    Q  E. S E E +E  E    Q  E. S E E +E  E    Q  Q  E E  Q 
|-0--0--0-0-(0)-0-|--0--0--0---0-(0)-1-|--1--1--1-1-1-(1)-3-|-----3----3--3--| 
|-1--1--1-1-(1)-1-|--1--1--1---1-(1)-1-|--1--1--1-1-1-(1)-1-|-----1--1-0--0--| 
|-0--0--0-0-(0)-2-|--2--2--2---2-(2)-2-|--2--2--2-2-2-(2)-0-|--0--0--0-0--0--| 
|-2--2--2-2-(2)-2-|--2--2--2-2-------3-|--3--3--3-3-3-(3)-0-|--0--0--0-0--0--| 
|---------------0-|--0--0--0-0---------|--------------------|----------------| 
|-----------------|--------------------|--------------------|----------------| 


  F                                 E7 
  Q  E. S E E E E   +E  E Q  +E E E E   Q  Q    E E E E   +E  E E E E E E E 
  |  |  | | | | |    |  | |   | | | |   |  |    | | | |    |  | | | | | | | 
  /  /  / / / / /    /  / /   / / / /   /  /    / / / /    /  / / / / / / / 

  Q  E. S E E E E   +E  E Q   E E E E   Q  E. S E E E E   +E  E Q   E E Q 
|-1--1--1-1-1-1-1-|-(1)-1-1---1-1-1-0-|----0--0-0-0-0-0-|-(0)-0-0---0-0-0---| 
|-1--1--1-1-1-1-1-|-(1)-1-1---1-1-1-0-|----0--0-0-0-0-0-|-(0)-0-0---0-0-0---| 
|-2--2----2-2-2-2-|-(2)-2-2---2-2-2-1-|----1--1-1-1-1-1-|-(1)-1-1---1-1-1---| 
|-3--3----3-3-3-3-|-(3)-3-3---3-3-3---|-0-------0-0-0-0-|-(0)-0-0---0-0-0---| 
|-----------------|-------------------|-2-------2-2-2-2-|-(2)-2-2---2-2-2---| 
|-----------------|-------------------|-0-------0-0-0-0-|-(0)-0-0---0-0-0---| 


                                       Chorus 
  E7                                    Am            F 
  Q  E E +E E E E   +E E E E E E E E    Q  Q  E E +E  E   +E  E Q  E E Q 
  |  | |  | | | |    | | | | | | | |    |  |  | |  |  |    |  | |  | | | 
  /  / /  / / / /    / / / / / / / /    /  /  / /  /  /    /  / /  / / / 

  Q  E E  E E E E    E E E E E E E E    Q  Q  E E +E  E   +E  E Q  Q   E E 
|-0--0-0--0-0-0-0-|--0-0-0-0-0-0-0-0-||-0--0--0-0-(0)-1-|-(1)-1-1--1---1-1-| 
|-0--0-0--0-0-0-0-|--0-0-0-0-0-0-0-0-||-1--1--1-1-(1)-1-|-(1)-1-1--1---1-1-| 
|-1--1-1--1-1-1-1-|--1-1-1-1-1-1-1-1-||-2--2--2-2-(2)-2-|-(2)-2-2--2---2-2-| 
|-0--0-0--0-0-0-0-|--0-0-0-0-0-0-0-0-||-2--2--2-2-(2)-3-|-(3)-3-3--3---3-3-| 
|-2--2-2--2-2-2-2-|--2-2-2-2-2-2-2-2-||-0--0--0-0-(0)---|------------------| 
|-0--0-0--0-0-0-0-|--0-0-0-0-0-0-0-0-||-----------------|------------------| 


  D7sus4/G    Gadd9               G   Am            F 
  Q  Q  E E E E   +S S E Q  E E E E   Q  Q  E E +E  E   +E  E Q  E E Q 
  |  |  | | | |    |   | |  | | | |   |  |  | |  |  |    |  | |  | | | 
  /  /  / / / /    /   / /  / / / /   /  /  / /  /  /    /  / /  / / / 

  Q  Q  E E E E    Q     Q  E E E E   Q  Q  E E +E  E   +E  E Q  Q   E E 
|-3--3--3-3-3-3-|--3-----3--3-3-3-3-|-0--0--0-0-(0)-1-|-(1)-1-1--1---1-1--| 
|-1--1--1-1-1-0-|--0-----0--0-0-0-0-|-1--1--1-1-(1)-1-|-(1)-1-1--1---1-1--| 
|-0--0--0-0-0-0-|--0-----0--0-0-0-0-|-2--2--2-2-(2)-2-|-(2)-2-2--2---2-2--| 
|-0--0--0-0-0-0-|--0-----0--0-0-0-0-|-2--2--2-2-(2)-3-|-(3)-3-3--3---3-3--| 
|---------------|-------------------|-0--0--0-0-(0)---|-------------------| 
|---------------|-------------------|-----------------|-------------------| 


  D7sus4/G    Gadd9               G   Em           Am                    Em 
  Q  Q  E E E E   +S S E Q  E E E E   Q  Q  E E +E E   +E E Q    E E +E  E 
  |  |  | | | |    |   | |  | | | |   |  |  | |  | |    | | |    | |  |  | 
  /  /  / / / /    /   / /  / / / /   /  /  / /  / /    / / /    / /  /  / 

  Q  Q  E E E E    Q     Q  E E E E   Q  Q  Q    E E    Q   E. S E E +E  E 
|-3--3--3-3-3-3-|--3-----3--3-3-3-3-|-0--0--0----0-0-|--0---0--0---0-(0)-0--| 
|-1--1--1-1-1-0-|--0-----0--0-0-0-0-|-0--0--0----0-1-|--1---1--1---1-(1)-0--| 
|-0--0--0-0-0-0-|--0-----0--0-0-0-0-|-0--0--0----0-2-|--2---2--2---2-(2)-0--| 
|-0--0--0-0-0-0-|--0-----0--0-0-0-0-|-2--2--2----2---|--2---2--2-2----------| 
|---------------|-------------------|-2--2--2----2---|--0---0--0-0----------| 
|---------------|-------------------|-0--0--0----0---|----------------------| 


  Em              Am                 Dm                                      D7sus4/G 
  Q  Q    E E +E  E   +Q  Q  E E +E  E   Q  Q  E E  E  E    Q   Q   E  E +E  E 
  |  |    | |  |  |    |  |  | |  |  |   |  |  | |  |  |    |   |   |  |  |  | 
  /  /    / /  /  /    /  /  / /  /  /   /  /  / /  /  /    /   /   /  /  /  / 

  Q  E. S E E +E  E    Q  Q  E E +E  E   Q  Q  E E +E  E   +Q   Q  +E  E +E  E 
|----0--0---0-(0)-0-|--0--0--0-0-(0)---|----1--1-1-(1)-1-|-(1)--1--(1)-1-(1)-3-| 
|----0--0---0-(0)-1-|--1--1--1-1-(1)---|----3--3-3-(3)-3-|-(3)--3--(3)-3-(3)-1-| 
|----0--0---0-(0)-2-|--2--2--2-2-(2)-2-|-2--2--2-2-(2)-2-|-(2)--2--(2)-2-(2)-0-| 
|-------------------|--2--2--2-2-(2)-0-|-0--0--0-0-(0)-0-|-(0)--0--(0)-0-(0)-0-| 
|-2-------2---------|--0--0--0-0-(0)---|-----------------|---------------------| 
|-0-------0---------|------------------|-----------------|---------------------| 


  D7sus4/G               Gadd9 
  Q  Q    Q    +S  S E   H     +Q   +S S E 
  |  |    |     |    |   |      |    | 
  /  /    /     /    /   /      /    / 

  Q  E E +E  E +E    E   Q  Q   E E  Q 
|-3--3-3-(3)-3-(3)---3-|-3--3---3-3--3-----|| 
|-1--1-1-(1)-1-(1)---0-|-0--0---0-0--0-----|| 
|-0--0-0-(0)-0-(0)---0-|-0--0---0-0--0-----|| 
|-0--0-0-(0)-0-(0)---0-|-0--0---0-0--0-----|| 
|----------------------|-------------------|| 
|----------------------|-------------------|| 


 Outro 
  Am                    G/A F   F/F(type 2)       G/D 
  E. S +E E +S E.    E  E    E  S S +E E +S S E E E 
  |  |  | |  | |     |  |    |  | |  | |  | | | | | 
  /  /  / /  / /     /  /    /  / /  / /  / / / / / 

  Q     Q    E    E +E  E   +E  E    Q    Q     E E 
|-0-----0----0----0-(0)-1-|-(1)-1----1----1-----1-1--| 
|-1-----1----1----1-(1)-1-|-(1)-1----1----1-----1-1--| 
|-2-----2----2----2-(2)-2-|-(2)-2----2----2-----2-2--| 
|-2-----2----2----2-(2)-3-|-(3)-3----3----3-----3-3--| 
|-0-----0----0----0-(0)---|--------------------------| 
|-------------------------|--------------------------| 


    D7sus4/G            Gadd9 
    Q  E E +S S E E E   Q  E E +S S E Q 
    |  | |  |   | | |   |  | |  |   | | 
    /  / /  /   / / /   /  / /  /   / / 

    Q  Q    E   E E E   Q  Q    E   E E E 
||--3--3----3---3-3-3-|-3--3----3---3-3-3-| 
||o-1--1----1---1-1-0-|-0--0----0---0-0-0-| 
||--0--0----0---0-0-0-|-0--0----0---0-0-0-| 
||--0--0----0---0-0-0-|-0--0----0---0-0-0-| 
||o-------------------|-------------------| 
||--------------------|-------------------| 


  Am                    G/A F   F(type 2)         G/D 
  E. S +E E +S E.    E  E    E  S S +E E +S S E E E 
  |  |  | |  | |     |  |    |  | |  | |  | | | | | 
  /  /  / /  / /     /  /    /  / /  / /  / / / / / 

  Q     Q    E    E +E  E   +E  E    Q    Q     E E  5x 
|-0-----0----0----0-(0)-1-|-(1)-1----1----1-----1-1--|| 
|-1-----1----1----1-(1)-1-|-(1)-1----1----1-----1-1-o|| 
|-2-----2----2----2-(2)-2-|-(2)-2----2----2-----2-2--|| 
|-2-----2----2----2-(2)-3-|-(3)-3----3----3-----3-3--|| 
|-0-----0----0----0-(0)---|-------------------------o|| 
|-------------------------|--------------------------|| 


  D7sus4/G            Gadd9               Am           AmAE  AmG/A 
  Q  E E +S S E E E   Q  E E +S S E Q     E. S +E E +S S S S E E 
  |  | |  |   | | |   |  | |  |   | |     |  |  | |  | | | | | | 
  /  / /  /   / / /   /  / /  /   / /     /  /  / /  / / o / / / 

  Q  Q    E   E E E   Q  Q    E   E E E   W 
|-3--3----3---3-3-3-|-3--3----3---3-3-3-|-0----------------------| 
|-1--1----1---1-1-0-|-0--0----0---0-0-0-|-1----------------------| 
|-0--0----0---0-0-0-|-0--0----0---0-0-0-|-2----------------------| 
|-0--0----0---0-0-0-|-0--0----0---0-0-0-|-2----------------------| 
|-------------------|-------------------|-0----------------------| 
|-------------------|-------------------|------------------------| 


  F(type 2)          G/D C 
  E. S +E E +S S E E E   W          +W 
  |  |  | |  | | | | |   |           | 
  /  /  / /  / / / / /   /           / 

  W                      W          +W 
|-1--------------------|-0--------|-(0)----*| 
|-1--------------------|-1--------|-(1)----*| 
|-2--------------------|-0--------|-(0)----*| 
|-3--------------------|-2--------|-(2)----*| 
|----------------------|-3--------|-(3)----*| 
|----------------------|----------|--------*| 
 
		  

Full key step upFull key step up
Half key step upHalf key step up
Half key step downHalf key step down
Full key step downFull key step down
hide glossary

See also:

tabs Hot Hot Heat - Middle Of Nowhere tabs Marianas Trench - By Now tabs Justin Bieber - Sorry tabs Celine Dion - My Heart Will Go On (ver. 6) tabs Hot Hot Heat - Goodnight goodnight (ver. 2) tabs Marianas Trench - Alibis (acoustic)
e-chords

Other versions:

tabs Bryan Adams - Back To You Unplugged
auto scroll beats size up size down change color hide chords drawings
tab show chords e-chords YouTube Clip e-chords hide all tabs e-chords go to top tab

share