Bruce Dickinson

home > Bruce Dickinson

The Tower Tab

Bruce Dickinson

Difficulty: BeginnerBeginner

tuner correct add songbook print version text version save to e-mail
chordsukulelecavacokeyboardtabbassdrumsharmonicsflute Guitar Pro
chords

The Tower

Year: 1998 - Album: The Best of Bruce Dickinson

  		BASS INTRO
-------------------------------------------------------
-------------------------------------------------------
-------------------------------------------------------
---------------------------5h7-------------------------
---5h7-----------------5h7------5h7--------------------
-------0-0-0--0-0--0-0--------------0-0-0--0-0--0-0----


-------------------------------------------------------
-------------------------------------------------------
-------------------------------------------------------
--7p5---------------------------------5h7--------------
------7p5-----5h7-----------------5h7-----5h7----------
-----------------0-0-0--0-0--0-0---------------0-0-0---


----------------------------
----------------------------
----------------------------
---------7-5-4-5-4----------
-------------------7-5------
---0-0----------------------

GUITAR INTRO

--0------0--0--0------0--0--0-----0-0--0----0-----------
--10/12--12-12-1210--10-10-108--8-8--7/8--7/8---------
--------------------------------------------------------
--------------------------------------------------------  
--------------------------------------------------------
--------------------------------------------------------


--0------0--0--0------0--0--0-----0-0--0----0-----------
--10/12--12-12-1210--10-10-108--8-8--7/8--7/8---------
--------------------------------------------------------
-------------------------------------------------------- 
--------------------------------------------------------
--------------------------------------------------------


--0------0--0--0------0--0--0-----0-0--0----0-----------
--10/12--12-12-1210--10-10-108--8-8--7/8--7/8---------
--------------------------------------------------------
-------------------------------------------------------- 
--------------------------------------------------------
--------------------------------------------------------


--0-----0--0---0--0---0----0----
--8/10--10-10--10/12--12---5----
--------------------------------
--------------------------------  
--------------------------------
--------------------------------


--0------0--0--0------0--0--0-----0-0--0----0-----------
--10/12--12-12-1210--10-10-108--8-8--7/8--7/8---------
--------------------------------------------------------
--------------------------------------------------------  
--------------------------------------------------------
--------------------------------------------------------


--0------0--0--0------0--0--0-----0--0--0------0--0-----
--10/12--12-12-1210--10-10-10/15-15-15-1512--12-12----
--------------------------------------------------------
--------------------------------------------------------  
--------------------------------------------------------
--------------------------------------------------------


--0------0--0--0------0--0--0-----0-0--0----0-----------
--10/12--12-12-1210--10-10-108--8-8--7/8--7/8---------
--------------------------------------------------------
--------------------------------------------------------  
--------------------------------------------------------
--------------------------------------------------------


--0-----0--0---0--0---0----0----
--8/10--10-10--10/12--12---5----
--------------------------------
--------------------------------  
--------------------------------
--------------------------------

GUITAR VERSE

--------------------------------------------------------
--------------------------------------------------------
--7/9-----9------9---9----------------------------------
--7/9-----9------9---9-----------------5h7--------------  
--5/7-----7------7---7----------5h7---------------------
------0-0-----0----0------------------------------------

--------------------------------------------------------
--------------------------------------------------------
--7/9-----9------9---9----------------------------------
--7/9-----9------9---9-----------7p5--------------------  
--5/7-----7------7---7-----------------7p5--------------
------0-0-----0----0------------------------------------

--------------------------------------------------------
--------------------------------------------------------
--7/9-----9------9---9----------------------------------
--7/9-----9------9---9-----------------5h7--------------  
--5/7-----7------7---7----------5h7---------------------
------0-0-----0----0------------------------------------
 
--------------------------------------------------------
--------------------------------------------------------
--7/9-----9---------------------------------------------
--7/9-----9------------------7-5-4-5-4------------------ 
--5/7-----7----------------------------7-5--------------
------0-0-------0--0------------------------------------

GUITAR PRE-CHORUS

---------------------------------------------------------
---------------------------------------------------------
--2------------------4---5-------------------------------
--2------------------4---5-------------------------------  
--0------------------2---3-------------------------------
---------------------------------------------------------

---------------------------------------------------------
---------------------------------------------------------
---------------------------------------------------------
--7/9------9------9---9-------7--9--10-------------------  
--5/7------7------7---7-------5--7--8--------------------
-------0-0---0-0----0---0-0------------------------------

---------------------------------------------------------
---------------------------------------------------------
---------------------------------------------------------
--7/9------9------9---9-------7--9--10-------------------  
--5/7------7------7---7-------5--7--8--------------------
-------0-0---0-0----0---0-0------------------------------

---------------------------------------------------------
---------------------------------------------------------
--2------------------4---5------4------------------2-----
--2------------------4---5------4--------5---------2-----  
--0------------------2---3------2--------5---------0-----
-----------------------------------------3---------------

GUITAR CHORUS

---------------------------------------------------------
---------------------------------------------------------
---9-------------7--7/9-----7----------------------------
---9-------------5--5/7-----7---------5-----3-----2------  
---7------------------------5---------5-----3-----2------
--------------------------------------3-----1-----0------

--------------------------
--------------------------
---------7--------7-------
---------7--------7-------  
---------5--------5-------
--0-0-0--------0----------

GUITAR BIDGE I

----------------------------------a.h.-------------------
---------------------------------------------------------
----------------------------------9----------------------
---2--2----2--2----2--2------2---------------------------  
---2--2----2--2----2--2------2---------------------------
---0--0----0--0----0--0------0---------------------------

----------------------------------a.h.-------------------
---------------------------------------a.h.--------------
----------------------------------9----------------------
---2--2----2--2----2--2------2---------8-----------------  
---2--2----2--2----2--2------2---------------------------
---0--0----0--0----0--0------0---------------------------

GUITAR SOLO

GUITAR LEGENDS

^=BEND
_=HOLD
H=HAMMER ON
P=PULL OFF
~=VIBRATO
V=REALESE

11^12________v11^12__________p9-11^12_v11--p9---12----------11
--------------------------------------------------------------
--------------------------------------------------------------
--------------------------------------------------------------
--------------------------------------------------------------
--------------------------------------------------------------

11--9---8---9---8---7----------7-----------7------------------
------------------------10--7----------10------7~~~~~~~~------
--------------------------------------------------------------
--------------------------------------------------------------
--------------------------------------------------------------
--------------------------------------------------------------

--------------------------------------------------------------
--------------------------------------------------------------
--------------------------------------------------------------
--------9---------------9-------------------------------------
9---9----12-p9--9-9-12---12p9--9-9-9-11~~~~~~~~~~~~~~~~~~~~~~~
--------------------------------------------------------------

--------12----------------------------------------------------
----------------10--10----------------------------------------
9-----------11----------11~~~~~~~~~~~~~~~~~~~~~11---6/---/11
--------------------------------------------------------------
--------------------------------------------------------------
--------------------------------------------------------------

16^17________v16^17____________p14--16^17______p14--16--------
--------------------------------------------------------------
--------------------------------------------------------------
--------------------------------------------------------------
--------------------------------------------------------------
--------------------------------------------------------------
   
17-----p16-p14-h16------17-----p16-p14-h16-----17------p16-p14
--------------------------------------------------------------
--------------------------------------------------------------
--------------------------------------------------------------
--------------------------------------------------------------
--------------------------------------------------------------

16-----h17-----p16-p14--14------17-----^19_____v17_^19_v17----
--------------------------------------------------------------
--------------------------------------------------------------
--------------------------------------------------------------
--------------------------------------------------------------
--------------------------------------------------------------

19------21--20--19--21--20--19-20--19------19--17-p14------17-
17-------------------------------------22^23-----------16-----
--------------------------------------------------------------
--------------------------------------------------------------
--------------------------------------------------------------
--------------------------------------------------------------

-------------------------------19----------19--21------19--22-24^26--
19~~~~~-19--21--22--19--21--22-----21--22----------22----------------
---------------------------------------------------------------------
---------------------------------------------------------------------
---------------------------------------------------------------------
---------------------------------------------------------------------

GUITAR SOLO-RIFF

---------------------------------------------------------
---------------------------------------------------------
-----------------------------------------------2---4-----
--4-4--4-4--4---------6--5---4-4--4-4--4---5---2---4-----  
--4-4--4-4--4---------4--3---4-4--4-4--4---5---0---2-----
--0h2--2-2--2----------------0h2--2-2--2---3-------------

GUITAR BRIDGE II

---------------------------------------
---------------------------------------
---------------------------------------
----------------9-7----7---------------
--7-7-7--7-7--7-----10---10-9-10-------
---------------------------------10----

---------------------------------------
---------------------------------------
---------------------------------------
----------------9-7----7---------------
--3-3-3--3-3--3-----10---10-9-10-------
---------------------------------10----

---------------------------------------
---------------------------------------
---------------------------------------
----------------9-7----7---------------
--0-0-0--0-0--0-----10---10-9-10-------
---------------------------------10----

---------------------------------------
---------------------------------------
---------------------------------------
----------------9-7----7---------------
--8-8-8--8-8--8-----10---10-9-10-------
---------------------------------10----

SONG STRUTURE

-BASS INTRO
-GUITAR INTRO
-GUITAR VERSE(2X)
-GUITAR PRE-CHORUS(2X)
-GUITAR CHORUS(2X)
-GUITAR INTRO(FIRST HALF)
-GUITAR VERSE(2X)
-GUITAR PRE-CHORUS(2X)
-GUITAR CHORUS(2X WITHOUT GUITAR INTRO 2X WITH GUITAR INTRO)
-GUITAR BRIDGE I(2X)
-GUITAR SOLO WITH GUITAR SOLO-RIFF(UNDER SOLO)
-GUITAR BRIDGE II(2X)
-GUITAR CHORUS(2X)
-GUITAR BRIDGE I(2X)

Tablatura enviada
por Renato Perussi Sobrinho,
qualquer dúvida ou sugestão
enviar a [email protected]


_______________________________________________________
Contribuição: Renato Sobrinho([email protected])
	  

Search Paypal
auto scroll beats size up size down change color hide chords drawings
tab show chords e-chords YouTube Clip e-chords hide all tabs e-chords go to top tab