Bruce Dickinson

home > Bruce Dickinson

Road to Hell Tab

Bruce Dickinson

Difficulty: IntermediateIntermediate

tuner correct add songbook print version text version save to e-mail
chordsukulelecavacokeyboardtabbassdrumsharmonicsflute Guitar Pro
chords

Road to Hell

Year: 1997 - Album: The Best of Bruce Dickinson

  		Legenda: 
 x - dead note 
 / - slide up 
  - slide down 
 
Intro: 
 Guitar 1 
  /------------------------ Reapeat twice ------------------------ 
e||-------------------------------|-------------------------------|| 
b||-------------------------------|-------------------------------|| 
g||-------------------------------|-------------------------------|| 
D||---4-5--7-5-4----7-5-4-7-5-4---|---4-5--7-5-4----7-5-x-7-5-x---|| 
A||-7------------5--------------5-|-7------------5--------------5-|| 
E||-------------------------------|-------------------------------|| 
 
 Guitar 2 
  /--------------------------- Reapeat twice --------------------------- 
e||----------------------------------|----------------------------------|| 
b||---7-8--10-8-7----10-8-7-10-8-7---|---7-8--10-8-7----10-8-x-10-8-x---|| 
g||-9-------------7----------------7-|-9-------------7----------------7-|| 
D||----------------------------------|----------------------------------|| 
A||----------------------------------|----------------------------------|| 
E||----------------------------------|----------------------------------|| 
 
Verse: 
  /--------- 4x --------------- /1.      /2.    
e||-----------------------------|---------|-------| 
b||-----------------------------|---------|-------| 
g||-9-----9-----9-----9-----97-|---------|-9-7-5-| 
D||-9-----9-----9-----9-----97-|---------|-9-7-5-| 
A||-7-7-7-7-7-7-7-7-7-7-7-7-75-|-7-5-----|-7-5-3-| 
E||-----------------------------|-----7-5-|-------| 
   Slowly bleeding... 
 
Pre-chorus: 
e||------------------------------| 
b||------------------------------| 
g||-4--4--4/54--4--5--7---7---7-| 
D||-4--4--4/54--4--5--7-x-7-x-7-| 
A||-2--2--2/32--2--3--5-x-5-x-5-| 
E||------------------------------| 
   Father forgive... 
 
Chorus: 
   Guitar 1 
  /------------------------ Reapeat twice ------------------------ 
e||-------------------------------|-------------------------------|| 
b||-------------------------------|-------------------------------|| 
g||-------------------------------|-------------------------------|| 
D||---4-5--7-5-4----7-5-4-7-5-4---|---4-5--7-5-4----7-5-x-7-5-x---|| 
A||-7------------5--------------5-|-7------------5--------------5-|| 
E||-------------------------------|-------------------------------|| 
 
 Guitar 2 
  /--------------------------- Reapeat twice --------------------------- 
e||----------------------------------|----------------------------------|| 
b||---7-8--10-8-7----10-8-7-10-8-7---|---7-8--10-8-7----10-8-x-10-8-x---|| 
g||-9-------------7----------------7-|-9-------------7----------------7-|| 
D||----------------------------------|----------------------------------|| 
A||----------------------------------|----------------------------------|| 
E||----------------------------------|----------------------------------|| 
 
Outro:
  /----------4x-----------------
e||-----------------------------|-----------------|
b||-----------------------------|-----------------|
g||-9-----9-----9-----9-----97-|-----------------|
D||-9-----9-----9-----9-----97-|-----------------|
A||-7-7-7-7-7-7-7-7-7-7-7-7-75-|-7-5-----7-5-----|
E||-----------------------------|-----7-5-----7-5-|

Outro 2: 
e||---------------------------------|---------------------------------| 
b||---------------------------------|---------------------------------| 
g||-4-4-4-4-4--5-5-5-5-5--7-7-7-7-7-|-4-4-4-4-4--5-5-5-5-5--2-2-2-2-2-| 
D||-4-4-4-4-4--5-5-5-5-5--7-7-7-7-7-|-4-4-4-4-4--5-5-5-5-5--2-2-2-2-2-| 
A||-2-2-2-2-2--3-3-3-3-3--5-5-5-5-5-|-2-2-2-2-2--3-3-3-3-3--0-0-0-0-0-| 
E||---------------------------------|---------------------------------| 
   
  |---------------------------------|---------| 
  |---------------------------------|---------| 
  |-4-4-4-4-4--5-5-5-5-5--7-7-7-7-7-|-4--5--7-| 
  |-4-4-4-4-4--5-5-5-5-5--7-7-7-7-7-|-4--5--7-| 
  |-2-2-2-2-2--3-3-3-3-3--5-5-5-5-5-|-2--3--5-| 
  |---------------------------------|---------| 
 
Solo: 
 Rhythm guitar 
e||------------------| 
b||------------------| 
g||-4--5--7--4--5--2-| 
D||-4--5--7--4--5--2-| 
A||-2--3--5--2--3--0-| 
E||------------------| 
 
  
Outro 3: 
 Guitar 1 
e||-------| 
b||-------| 
g||-------| Repeat 
D||-7-5---| many 
A||-----7-| times 
E||-------| 
 
 Guitar 2 
e||-------| Repeat 
b||-5-3-0-| many 
g||-------| times 
D||-------| 
A||-------| 
E||-------| 
 
Final: 
e||--------| 
b||--------| 
g||-9-9-9-| 
D||-9-9-9-| 
A||-7-7-7-| 
E||--------| 

A música segue assim:

 Intro
 Verse
 Pre-Chorus
 Chorus
 Outro
 Intro
 Verse
 Pre-Chorus
 Chorus
 Outro 2
 Solo
 Pre-Chorus
 Chorus
 Outro 3
 Final


_______________________________________________________
Contribuição: Isa Rose McKagan([email protected])
	  

Search Paypal
auto scroll beats size up size down change color hide chords drawings
tab show chords e-chords YouTube Clip e-chords hide all tabs e-chords go to top tab