Bruce Dickinson

Darkness (ver. 2) Tab

Bruce Dickinson

Difficulty: nolevelnolevel

by Vallim+guitar

tuner correct add songbook print version text version save to e-mail
chordsukulelecavacokeyboardtabbassdrumsharmonicsflute Guitar Pro
close

there isn't a video lesson for this song

chords

Darkness (ver. 2)

  		  E E E E  E  E  E  E   E E E E  E  E  E  E 
|-----3---------------|-----3---------------| 
|---5---5-------------|---5---5-------------| 
|-----0---21----------|-----0---21----------| 
|-2-2---2----21-17-14-|-2-2---2----21-17-14-| 
|---------------------|---------------------| 
|-0-------24-19-15-12-|-0-------24-19-15-12-| 
 
 
  E  E  E  E  E  E  E  E   E  E  E  E  E  E  E E 
|------------------------|---15-------------------| 
|------------17----------|------------20----------| 
|---21----------16-------|---12-16-------16----7--| 
|-2----21-17-14----17-14-|-5-------17-17----17-0--| 
|---------------14-------|------14----------------| 
|-0-24-19-15-------15-12-|-3-------15----19-15----| 
 
 
  E  E  E  E  E  E  E  E   E  E  E  E  E  E  E  E 
|---14-------15-14-------|------------------------| 
|------15----------15----|------------17----------| 
|-7-11----14-12-11----14-|---21----------16-------| 
|-0----12----------12----|-2----21-17-14----17-14-| 
|---------12----------12-|---------------14-------| 
|------------------------|-0-24-19-15-------15-12-| 
 
 
  E  E  E  E  E  E  E  E   E  E  E  E  E  E  E E 
|------------------------|---15------------------| 
|------------17----------|------------20---------| 
|---21----------16-------|---12-16-------16----7-| 
|-2----21-17-14----17-14-|-5-------17-17----17-0-| 
|---------------14-------|------14---------------| 
|-0-24-19-15-------15-12-|-3-------15----19-15---| 
 
 
  E  E  E  E  E  E  E  E   E  E  E  E  E  E  E  E 
|---14-------15-14-------|------------------------| 
|------15----------15----|------------17----------| 
|-7-11----14-12-11----14-|---21----------16-------| 
|-0----12----------12----|-2----21-17-14----17-14-| 
|---------12----------12-|---------------14-------| 
|------------------------|-0-24-19-15-------15-12-| 
 
 
  E E  E E E  E E E   E E  E E E  E E E 
|---8------8--------|---8------8--------| 
|-----10-----10-----|-----10-----10-----| 
|---5----9-5----9---|---5----9-5----9---| 
|-7----7------7---7-|-7----7------7---7-| 
|-0------7------7-0-|-0------7------7-0-| 
|-------------------|-------------------| 
 
 
  E  E  E  E E  E  E  E   E  E  E  E  E  E  E  E 
|---15---------15-------|------------------------| 
|-----------------------|------------17----------| 
|---12-16------12-16----|---21----------16-------| 
|-5-------17-4-------17-|-2----21-17-14----17-14-| 
|------14---------14----|---------------14-------| 
|-3-------15-2-------15-|-0-24-19-15-------15-12-| 
 
 
  E  E  E  E  E  E  E  E   E  E  E  E  E  E  E E 
|------------------------|---15------------------| 
|------------17----------|------------20---------| 
|---21----------16-------|---12-16-------16----7-| 
|-2----21-17-14----17-14-|-5-------17-17----17-0-| 
|---------------14-------|------14---------------| 
|-0-24-19-15-------15-12-|-3-------15----19-15---| 
 
 
  E  E  E  E  E  E  E  E   E  E  E  E  E  E  E  E 
|---14-------15-14-------|------------------------| 
|------15----------15----|------------17----------| 
|-7-11----14-12-11----14-|---21----------16-------| 
|-0----12----------12----|-2----21-17-14----17-14-| 
|---------12----------12-|---------------14-------| 
|------------------------|-0-24-19-15-------15-12-| 
 
 
  E  E  E  E  E  E  E  E   E  E  E  E  E  E  E  E 
|------------------------|------------------------| 
|------------17----------|------------17----------| 
|---21----------16-------|---21----------16-------| 
|-2----21-17-14----17-14-|-2----21-17-14----17-14-| 
|---------------14-------|---------------14-------| 
|-0-24-19-15-------15-12-|-0-24-19-15-------15-12-| 
 
 
  E  E  E  E  E  E  E  E   E  E  E  E  E  E  E  E 
|------------------------|------------------------| 
|------------17----------|------------17----------| 
|---21----------16-------|---21----------16-------| 
|-2----21-17-14----17-14-|-2----21-17-14----17-14-| 
|---------------14-------|---------------14-------| 
|-0-24-19-15-------15-12-|-0-24-19-15-------15-12-| 
 
 
  E  E  E  E  E  E  E  E   E  E  E  E  E  E  E E 
|------------------------|---15------------------| 
|------------17----------|------------20---------| 
|---21----------16-------|---12-16-------16----7-| 
|-2----21-17-14----17-14-|-5-------17-17----17-0-| 
|---------------14-------|------14---------------| 
|-0-24-19-15-------15-12-|-3-------15----19-15---| 
 
 
  E  E  E  E  E  E  E  E   E  E  E  E  E  E  E  E 
|---14-------15-14-------|------------------------| 
|------15----------15----|------------17----------| 
|-7-11----14-12-11----14-|---21----------16-------| 
|-0----12----------12----|-2----21-17-14----17-14-| 
|---------12----------12-|---------------14-------| 
|------------------------|-0-24-19-15-------15-12-| 
 
 
  E  E  E  E  E  E  E  E   E  E  E  E  E  E  E E 
|------------------------|---15------------------| 
|------------17----------|------------20---------| 
|---21----------16-------|---12-16-------16----7-| 
|-2----21-17-14----17-14-|-5-------17-17----17-0-| 
|---------------14-------|------14---------------| 
|-0-24-19-15-------15-12-|-3-------15----19-15---| 
 
 
  E  E  E  E  E  E  E  E   E  E  E  E  E  E  E  E 
|---14-------15-14-------|------------------------| 
|------15----------15----|------------17----------| 
|-7-11----14-12-11----14-|---21----------16-------| 
|-0----12----------12----|-2----21-17-14----17-14-| 
|---------12----------12-|---------------14-------| 
|------------------------|-0-24-19-15-------15-12-| 
 
 
  E E  E E E  E E E   E E  E E E  E E E 
|---8------8--------|---8------8--------| 
|-----10-----10-----|-----10-----10-----| 
|---5----9-5----9---|---5----9-5----9---| 
|-7----7------7---7-|-7----7------7---7-| 
|-0------7------7-0-|-0------7------7-0-| 
|-------------------|-------------------| 
 
 
  E  E  E  E E  E  E  E   E  E  E  E  E  E  E  E 
|---15---------15-------|------------------------| 
|-----------------------|------------17----------| 
|---12-16------12-16----|---21----------16-------| 
|-5-------17-4-------17-|-2----21-17-14----17-14-| 
|------14---------14----|---------------14-------| 
|-3-------15-2-------15-|-0-24-19-15-------15-12-| 
 
 
  E  E  E  E  E  E  E  E   E  E  E  E  E  E  E E 
|------------------------|---15------------------| 
|------------17----------|------------20---------| 
|---21----------16-------|---12-16-------16----7-| 
|-2----21-17-14----17-14-|-5-------17-17----17-0-| 
|---------------14-------|------14---------------| 
|-0-24-19-15-------15-12-|-3-------15----19-15---| 
 
 
  E  E  E  E  E  E  E  E   E  E  E  E  E  E  E  E 
|---14-------15-14-------|------------------------| 
|------15----------15----|------------17----------| 
|-7-11----14-12-11----14-|---21----------16-------| 
|-0----12----------12----|-2----21-17-14----17-14-| 
|---------12----------12-|---------------14-------| 
|------------------------|-0-24-19-15-------15-12-| 
 
 
  E  E  E  E  E  E  E  E   E  E  E  E  E  E  E  E 
|------------------------|------------------------| 
|------------17----------|------------17----------| 
|---21----------16-------|---21----------16-------| 
|-2----21-17-14----17-14-|-2----21-17-14----17-14-| 
|---------------14-------|---------------14-------| 
|-0-24-19-15-------15-12-|-0-24-19-15-------15-12-| 
 
 
  E  E  E  E  E  E  E  E   E  E  E  E  E  E  E  E 
|------------------------|------------------------| 
|------------17----------|------------17----------| 
|---21----------16-------|---21----------16-------| 
|-2----21-17-14----17-14-|-2----21-17-14----17-14-| 
|---------------14-------|---------------14-------| 
|-0-24-19-15-------15-12-|-0-24-19-15-------15-12-| 
 
 
  E  E  E  E  E  E  E  E   E  E  E  E  E  E  E E 
|------------------------|---15------------------| 
|------------17----------|------------20---------| 
|---21----------16-------|---12-16-------16----7-| 
|-2----21-17-14----17-14-|-5-------17-17----17-0-| 
|---------------14-------|------14---------------| 
|-0-24-19-15-------15-12-|-3-------15----19-15---| 
 
 
  E  E  E  E  E  E  E  E   E  E  E  E  E  E  E  E 
|---14-------15-14-------|------------------------| 
|------15----------15----|------------17----------| 
|-7-11----14-12-11----14-|---21----------16-------| 
|-0----12----------12----|-2----21-17-14----17-14-| 
|---------12----------12-|---------------14-------| 
|------------------------|-0-24-19-15-------15-12-| 
 
 
  E  E  E  E  E  E  E  E   E  E  E  E  E  E  E E 
|------------------------|---15------------------| 
|------------17----------|------------20---------| 
|---21----------16-------|---12-16-------16----7-| 
|-2----21-17-14----17-14-|-5-------17-17----17-0-| 
|---------------14-------|------14---------------| 
|-0-24-19-15-------15-12-|-3-------15----19-15---| 
 
 
  E  E  E  E  E  E  E  E   E  E  E  E  E  E  E  E 
|---14-------15-14-------|------------------------| 
|------15----------15----|------------17----------| 
|-7-11----14-12-11----14-|---21----------16-------| 
|-0----12----------12----|-2----21-17-14----17-14-| 
|---------12----------12-|---------------14-------| 
|------------------------|-0-24-19-15-------15-12-| 
 
 
  E E  E E E  E E E   E E  E E E  E E E 
|---8------8--------|---8------8--------| 
|-----10-----10-----|-----10-----10-----| 
|---5----9-5----9---|---5----9-5----9---| 
|-7----7------7---7-|-7----7------7---7-| 
|-0------7------7-0-|-0------7------7-0-| 
|-------------------|-------------------| 
 
 
  E  E  E  E E  E  E  E   E  E  E  E  E  E  E  E 
|---15---------15-------|------------------------| 
|-----------------------|------------17----------| 
|---12-16------12-16----|---21----------16-------| 
|-5-------17-4-------17-|-2----21-17-14----17-14-| 
|------14---------14----|---------------14-------| 
|-3-------15-2-------15-|-0-24-19-15-------15-12-| 
 
 
  E  E  E  E  E  E  E  E   E  E  E  E  E  E  E E 
|------------------------|---15------------------| 
|------------17----------|------------20---------| 
|---21----------16-------|---12-16-------16----7-| 
|-2----21-17-14----17-14-|-5-------17-17----17-0-| 
|---------------14-------|------14---------------| 
|-0-24-19-15-------15-12-|-3-------15----19-15---| 
 
 
  E  E  E  E  E  E  E  E   E  E  E  E  E  E  E  E 
|---14-------15-14-------|------------------------| 
|------15----------15----|------------17----------| 
|-7-11----14-12-11----14-|---21----------16-------| 
|-0----12----------12----|-2----21-17-14----17-14-| 
|---------12----------12-|---------------14-------| 
|------------------------|-0-24-19-15-------15-12-| 
 
 
  E  E  E  E  E  E  E  E   E  E  E  E  E  E  E E 
|------------------------|---15------------------| 
|------------17----------|------------20---------| 
|---21----------16-------|---12-16-------16----7-| 
|-2----21-17-14----17-14-|-5-------17-17----17-0-| 
|---------------14-------|------14---------------| 
|-0-24-19-15-------15-12-|-3-------15----19-15---| 
 
 
  E  E  E  E  E  E  E  E   S S S  S  +Q    +H 
|---14-------15-14-------|-----3-12-(12)--(12)----*| 
|------15----------15----|---5---12-(12)--(12)----*| 
|-7-11----14-12-11----14-|---4-0--9--(9)---(9)----*| 
|-0----12----------12----|-2-2----9--(9)---(9)----*| 
|---------12----------12-|---2--------------------*| 
|------------------------|-0----------------------*| 
 

	  

Full key step upFull key step up
Half key step upHalf key step up
Half key step downHalf key step down
Full key step downFull key step down
auto scroll beats size up size down change color hide chords drawings
tab show chords e-chords YouTube Clip e-chords hide all tabs e-chords go to top tab

share with facebook

Search Paypal