Brody Dalle

Rat Race

Brody Dalle

tabs

by  PAULANTUNES

save to print version add songbook text version e-mail correct tuner
chordsukulelecavacokeyboardtabbassdrumsharmonicaflute Guitar Pro
close

there isn't a video lesson for this song

chords

Rat Race

	  		Intro  

e||----------------------------------------------------------------------|| x3        
B||----------------------------------------------------------------------||           
G||----------------------------------------------------------------------||           
D||-5-5-5-5-5-5-5-5-9-9-9-9-11-11-11-11-7-7-7-7-7-7-7-7-7-7-7-7-7-7-7-7--||           
A||-5-5-5-5-5-5-5-5-9-9-9-9-11-11-11-11-7-7-7-7-7-7-7-7-7-7-7-7-7-7-7-7--|| 
E||-3-3-3-3-3-3-3-3-7-7-7-7-9--9--9--9--5-5-5-5-5-5-5-5-5-5-5-5-5-5-5-5--|| 


verse 1 
   
Part 1 
e||----------------------------------------------------------------------|| x3       part 1 x3  
B||----------------------------------------------------------------------||          part 2 x 1 
G||----------------------------------------------------------------------||          part 1 x3  
D||-5-5-5-5-5-5-5-5-9-9-9-9-11-11-11-11-7-7-7-7-7-7-7-7-7-7-7-7-7-7-7-7--||          part 2 x1 
A||-5-5-5-5-5-5-5-5-9-9-9-9-11-11-11-11-7-7-7-7-7-7-7-7-7-7-7-7-7-7-7-7--|| 
E||-3-3-3-3-3-3-3-3-7-7-7-7-9--9--9--9--5-5-5-5-5-5-5-5-5-5-5-5-5-5-5-5--|| 

Part 2 
e||--------------------------------------------------|| 
B||--------------------------------------------------|| x1       
G||-----------------4-4-4-4-4-4-4-4-4-4-4-4-4-4-4-4--|| 
D||-5-5-5-5-5-5-5-5-4-4-4-4-4-4-4-4-4-4-4-4-4-4-4-4--|| 
A||-5-5-5-5-5-5-5-5-2-2-2-2-2-2-2-2-2-2-2-2-2-2-2-2--|| 
E||-3-3-3-3-3-3-3-3----------------------------------|| 


Chorus x2 
e||----------------------------------------------------------------------------------------|| 
B||----------------------------------------------------------------------------------------|| 
G||-10-10-10-10-10-10-10-10-12-12-12-12-12-12-12-12----------------------------------------|| 
D||-10-10-10-10-10-10-10-10-12-12-12-12-12-12-12-12-12-12-7-7-7-7-7-7-7-7-7-7-7-7-7-7-7-7--|| 
A||-12-12-12-12-12-12-12-12-14-14-14-14-14-14-14-14-12-12-7-7-7-7-7-7-7-7-7-7-7-7-7-7-7-7--|| 
E||-------------------------------------------------10-10-5-5-5-5-5-5-5-5-5-5-5-5-5-5-5-5--||  


e||--------------------------------------------------|| 
B||--------------------------------------------------|| 
G||-9-9-9-9-9-9-9-9----------------------------------|| 
D||-9-9-9-9-9-9-9-9-9-9-9-9-9-9-9-9-7-7-7-7-7-7-7-7--|| 
A||-7-7-7-7-7-7-7-7-9-9-9-9-9-9-9-9-7-7-7-7-7-7-7-7--|| 
E||-----------------7-7-7-7-7-7-7-7-5-5-5-5-5-5-5-5--|| 

Verse pattern again done twice through 


Chorus 2 x1 

e||----------------------------------------------------------------------------------------|| 
B||----------------------------------------------------------------------------------------|| 
G||-10-10-10-10-10-10-10-10-12-12-12-12-12-12-12-12----------------------------------------|| 
D||-10-10-10-10-10-10-10-10-12-12-12-12-12-12-12-12-12-12-7-7-7-7-7-7-7-7-7-7-7-7-7-7-7-7--|| 
A||-12-12-12-12-12-12-12-12-14-14-14-14-14-14-14-14-12-12-7-7-7-7-7-7-7-7-7-7-7-7-7-7-7-7--|| 
E||-------------------------------------------------10-10-5-5-5-5-5-5-5-5-5-5-5-5-5-5-5-5--||  

e||---------------------------------------------------------|| 
B||---------------------------------------------------------|| 
G||-9-9-9-9-9-9-9-9-----------------------------------------|| 
D||-9-9-9-9-9-9-9-9-9-9-9-9-9-9-9-9-7-7-7-7-7-7-7-7-8-8-7-7-|| 
A||-7-7-7-7-7-7-7-7-9-9-9-9-9-9-9-9-7-7-7-7-7-7-7-7-8-8-7-7-|| 
E||-----------------7-7-7-7-7-7-7-7-5-5-5-5-5-5-5-5-6-6-5-5-|| 

e||----------------------------------------------------------------------------------------|| 
B||----------------------------------------------------------------------------------------|| 
G||-10-10-10-10-10-10-10-10-12-12-12-12-12-12-12-12----------------------------------------|| 
D||-10-10-10-10-10-10-10-10-12-12-12-12-12-12-12-12-12-12-7-7-7-7-7-7-7-7-7-7-7-7-7-7-7-7--|| 
A||-12-12-12-12-12-12-12-12-14-14-14-14-14-14-14-14-12-12-7-7-7-7-7-7-7-7-7-7-7-7-7-7-7-7--|| 
E||-------------------------------------------------10-10-5-5-5-5-5-5-5-5-5-5-5-5-5-5-5-5--||  

e||--------------------------------------------------|| 
B||--------------------------------------------------|| 
G||-9-9-9-9-9-9-9-9----------------------------------|| 
D||-9-9-9-9-9-9-9-9-9-9-9-9-9-9-9-9-7-7-7-7-7-7-7-7--|| 
A||-7-7-7-7-7-7-7-7-9-9-9-9-9-9-9-9-7-7-7-7-7-7-7-7--|| 
E||-----------------7-7-7-7-7-7-7-7-5-5-5-5-5-5-5-5--|| 
Bridge section p.m. x 3 

e||--------------------------------------------------|| 
B||--------------------------------------------------|| 
G||--------------------------------------------------|| 
D||-5-5-5-5-5-5-5-5-7-7-7-7-7-7-7-7-9-9-9-9-9-9-9-9--|| 
A||-5-5-5-5-5-5-5-5-7-7-7-7-7-7-7-7-9-9-9-9-9-9-9-9--|| 
E||-3-3-3-3-3-3-3-3-5-5-5-5-5-5-5-5-7-7-7-7-7-7-7-7--|| 

e||----------------------------------|| 
B||----------------------------------|| 
G||----------------------------------|| last time around for bridge  
D||-9-9-9-9-9-9-9-9-9-9-9-9-9-9-9-9--|| 
A||-9-9-9-9-9-9-9-9-9-9-9-9-9-9-9-9--|| 
E||-7-7-7-7-7-7-7-7-7-7-7-7-7-7-7-7--|| 

Chorus 3 x 2 
e||----------------------------------------------------------------------------------------|| 
B||----------------------------------------------------------------------------------------|| 
G||-10-10-10-10-10-10-10-10-12-12-12-12-12-12-12-12----------------------------------------|| 
D||-10-10-10-10-10-10-10-10-12-12-12-12-12-12-12-12-12-12-7-7-7-7-7-7-7-7-7-7-7-7-7-7-7-7--|| 
A||-12-12-12-12-12-12-12-12-14-14-14-14-14-14-14-14-12-12-7-7-7-7-7-7-7-7-7-7-7-7-7-7-7-7--|| 
E||-------------------------------------------------10-10-5-5-5-5-5-5-5-5-5-5-5-5-5-5-5-5--||  

e||--------------------------------------------------|| 
B||--------------------------------------------------|| 
G||-9-9-9-9-9-9-9-9----------------------------------|| 
D||-9-9-9-9-9-9-9-9-9-9-9-9-9-9-9-9-7-7-7-7-7-7-7-7--|| 
A||-7-7-7-7-7-7-7-7-9-9-9-9-9-9-9-9-7-7-7-7-7-7-7-7--|| 
E||-----------------7-7-7-7-7-7-7-7-5-5-5-5-5-5-5-5--|| 

Finish on  

e||------------------------------|| 
B||------------------------------|| 
G||------------------------------|| 
D||-7-7-7-7-7-7-7-7-7-7-7-7-7-7--|| 
A||-7-7-7-7-7-7-7-7-7-7-7-7-7-7--|| 
E||-5-5-5-5-5-5-5-5-5-5-5-5-5-5--|| 
		  

auto scroll beats size up size down change color hide chords drawings
tab show chords e-chords YouTube Clip e-chords hide all tabs e-chords go to top tab

share