Brasil

home > Brasil

Hino Brasileiro Tab

Brasil

Difficulty: EasyEasy

by adalgomes

tuner correct add songbook print version text version save to e-mail
chordsukulelecavacokeyboardtabbassdrumsharmonicsflute Guitar Pro
chords

Hino Brasileiro

  		Hino do Brasil 

E |-----------4---4-5-6-7-------------4---5^4----- 
B |---5-4-5-7---7---------5---5-4-7-5---7-----6-7- 
G |-4-----------------------4--------------------- 
F |----------------------------------------------- 
A |----------------------------------------------- 
E |----------------------------------------------- 
"Ouviram do Ipiranga as margens plácidas 
 De um povo heróico o brado retumbante," 

E |-------------------7-8-9------------------7-------- 
B |---7-6-7-9-10-9-10-------7---7-6-9-7-10-9---10-8-9- 
G |-6-------------------------6----------------------- 
F |--------------------------------------------------- 
A |--------------------------------------------------- 
E |--------------------------------------------------- 
"E o Sol da liberdade, em raios fúlgidos, 
 Brilhou no céu da pátria nesse instante." 

E |-------------------9-8----------------------------- 
B |-9-9-10-9-9-10-9-9-----11-11-10-10-8-8------------- 
G |---------------------------------------10-10-9-9-7- 
D |--------------------------------------------------- 
A |--------------------------------------------------- 
E |--------------------------------------------------- 
"Se o penhor dessa igualdade 
 Conseguimos conquistar com braço forte," 

E |-------------------8-7----------------------------- 
B |-8-8-10-8-8-10-8-8-----10-10-8-8------------------- 
G |---------------------------------10-10-9-9-7-7----- 
D |-----------------------------------------------10-- 
A |--------------------------------------------------- 
E |--------------------------------------------------- 
"Em teu seio, ó liberdade, 
 Desafia o nosso peito a própria morte!" 

E |-------5-------5-------5-5- 
B |---4-7---7-4-----7-4------- 
G |-4-----------4-------4----- 
D |--------------------------- 
A |--------------------------- 
E |--------------------------- 
"Ó pátria amada, 
 Idolatrada, 
 Salve! Salve!" 

E |-----------4---4-5-6-7-------------4---5^4----- 
B |---5-4-5-7---7---------5---5-4-7-5---7-----6-7- 
G |-4-----------------------4--------------------- 
F |----------------------------------------------- 
A |----------------------------------------------- 
E |----------------------------------------------- 
"Brasil, um sonho intenso, um raio vívido 
 De amor e de esperança à terra desce," 

E |-------------------7-8-9------------------7-------- 
B |---7-6-7-9-10-9-10-------7---7-6-9-7-10-9---10-8-9- 
G |-6-------------------------6----------------------- 
F |--------------------------------------------------- 
A |--------------------------------------------------- 
E |--------------------------------------------------- 
"Se em teu formoso céu, risonho e límpido, 
 A imagem do Cruzeiro resplandece." 

E |---------------------5-5---------------------7-7---------------------9- 
B |-5-7-5-4^5-4^5-7-5-5-----7-9-7-6^7-6^7-9-7-7-----9-10-8^9-8^9-10-9-9--- 
G |----------------------------------------------------------------------- 
D |----------------------------------------------------------------------- 
A |----------------------------------------------------------------------- 
E |----------------------------------------------------------------------- 
"Gigante pela própria natureza, 
 És belo, és forte, impávido colosso, 
 E o teu futuro espelha essa grandeza," 

E |-7-----------------5^4---------5------- 
B |---10-7-7----4-5-7-----4-5-------7-7-5- 
G |----------9----------------6-6--------- 
D |--------------------------------------- 
A |--------------------------------------- 
E |--------------------------------------- 
"Terra adorada, 
 Entre outras mil, 
 És tu, Brasil, 
 Ó Pátria amada" 

E |-4-5-6-6-7-4-----4-5---------------- 
B |-------------5-------5-------4-5~~~- 
G |---------------6-------6-4-6-------- 
D |------------------------------------ 
A |------------------------------------ 
E |------------------------------------ 
"Dos filhos deste solo és mãe gentil, 
 Pátria amada, 
 Brasil!" 
	  

Search Paypal
auto scroll beats size up size down change color hide chords drawings
tab show chords e-chords YouTube Clip e-chords hide all tabs e-chords go to top tab