Brandi Carlile

Mainstream Kid

Brandi Carlile

tabs

by  DEIVCAVALCANTI

save to print version add songbook text version e-mail correct tuner
chordsukulelecavacokeyboardtabbassdrumsharmonicaflute Guitar Pro
close

there isn't a video lesson for this song

chords

Mainstream Kid

	  		Intro 

e|-----------------------------------------------------------------------------------------------------------| 
B|-----------------------------------------------------------------------------------------------------------| 
G|-6-6----6-6--6-6-6--6-6--6-6-6--6-6--6-6-6--6--------------------------------------------------------------| 
D|-7-7----7-7--7-7-7--7-7--7-7-7--7-7--7-7-7--7--------------------------------------------------------------| 
A|-7-7----7-7--7-7-7--7-7--7-7-7--7-7--7-7-7--7--------------------------------------------------------------| 
E|-5-5----5-5--5-0-0--5-5--5-0-0--5-5--5-0-0--5--------------------------------------------------------------| 
PM             * *         * *         * *      


verse 1 

e|-----------------------------------------------------------------------------------------------------------| 
B|-----------------------------------------------------------------------------------------------------------| 
G|-6-6--6-6-6--6-6--6-6-6--6-6--6-6-6--6-6--6-6-6--6-6--6-6-6--6-6--6-6-6--6-6--6-6-6--6-6--6-6-6------------| 
D|-7-7--7-7-7--7-7--7-7-7--7-7--7-7-7--7-7--7-7-7--7-7--7-7-7--7-7--7-7-7--7-7--7-7-7--7-7--7-7-7------------| 
A|-7-7--7-7-7--7-7--7-7-7--7-7--7-7-7--7-7--7-7-7--7-7--7-7-7--7-7--7-7-7--7-7--7-7-7--7-7--7-7-7------------| 
E|-5-5--5-0-0--5-5--5-0-0--5-5--5-0-0--5-5--5-0-0--5-5--5-0-0--5-5--5-0-0--5-5--5-0-0--5-5--5-0-0------------| 
PM      * *         * *         * *         * *         * *         * *         * *         * * 

e|-----------------------------------------------------------------------------------------------------------| 
B|-----------------------------------------------------------------------------------------------------------| 
G|-11-11--11-11-11--11-11--11-11-11--11-11--11-11-11--11-11--11-11-11--6-6--6-6-6--6-6--6-6-6--6-------------| 
D|-12-12--12-12-12--12-12--12-12-12--12-12--12-12-12--12-12--12-12-12--7-7--7-7-7--7-7--7-7-7--7-------------| 
A|-12-12--12-12-12--12-12--12-12-12--12-12--12-12-12--12-12--12-12-12--7-7--7-7-7--7-7--7-7-7--7-------------| 
E|-10-10--10-0--0---10-10--10-0--0---10-10--10-0--0---10-10--10-0--0---5-5--5-0-0--5-5--5-0-0--5-------------| 
PM *  *   *         *  *   *         *  *   *         *  *   *              * *         * * 

e|-----------------------------------------------------------------------------------------------------------| 
B|-----------------------------------------------------------------------------------------------------------| 
G|-6-6--6-6-6--6-6--6-6-6--6-6--6-6-6--6-6--6-6-6--6-6--6-6-6--6-6--6-6-6--6-6--6-6-6--6-6--6-6-6------------| 
D|-7-7--7-7-7--7-7--7-7-7--7-7--7-7-7--7-7--7-7-7--7-7--7-7-7--7-7--7-7-7--7-7--7-7-7--7-7--7-7-7------------| 
A|-7-7--7-7-7--7-7--7-7-7--7-7--7-7-7--7-7--7-7-7--7-7--7-7-7--7-7--7-7-7--7-7--7-7-7--7-7--7-7-7------------| 
E|-5-5--5-0-0--5-5--5-0-0--5-5--5-0-0--5-5--5-0-0--5-5--5-0-0--5-5--5-0-0--5-5--5-0-0--5-5--5-0-0------------| 

e|-----------------------------------------------------------------------------------------------------------| 
B|-----------------------------------------------------------------------------------------------------------| 
G|-11-11--11-11-11--11-11--11-11-11--11-11--11-11-11--11-11--11-11-11----------------------------------------| 
D|-12-12--12-12-12--12-12--12-12-12--12-12--12-12-12--12-12--12-12-12----------------------------------------| 
A|-12-12--12-12-12--12-12--12-12-12--12-12--12-12-12--12-12--12-12-12----------------------------------------| 
E|-10-10--10-0--0---10-10--10-0--0---10-10--10-0--0---10-10--10-0--0-----------------------------------------| 

e|-----------------------------------------------------------------------------------------------------------| 
B|-----------------------------------------------------------------------------------------------------------| 
G|-6-6--6-6-6--6-6--6-6-6--6-6--6-6-6--6-6--6-6-6------------------------------------------------------------| 
D|-7-7--7-7-7--7-7--7-7-7--7-7--7-7-7--7-7--7-7-7------------------------------------------------------------| 
A|-7-7--7-7-7--7-7--7-7-7--7-7--7-7-7--7-7--7-7-7------------------------------------------------------------| 
E|-5-5--5-0-0--5-5--5-0-0--5-5--5-0-0--5-5--5-0-0------------------------------------------------------------| 


Pre-Chorus 

e|-----------------------------------------------------------------------------------------------------------| 
B|-----------------------------------------------------------------------------------------------------------| 
G|-1-1-1-1-1-1-1-1-1-1-1-1-1-1-1-1--11-11-11-11-11-11-11-11-11-11-11-11-11-11-11-11-11-11--------------------| 
D|-0-0-0-0-0-0-0-0-0-0-0-0-0-0-0-0--10-10-10-10-10-10-10-10-10-10-10-10-10-10-10-10-10-10--------------------| 
A|-2-2-2-2-2-2-2-2-2-2-2-2-2-2-2-2--12-12-12-12-12-12-12-12-12-12-12-12-12-12-12-12-12-12--------------------| 
E|-0-0-0-0-0-0-0-0-0-0-0-0-0-0-0-0--10-10-10-10-10-10-10-10-10-10-10-10-10-10-10-10-10-10--------------------| 


Chorus 

e|-----------------------------------------------------------------------------------------------------------| 
B|-----------------------------------------------------------------------------------------------------------| 
G|-b5---b5---b5---b5------b5---b5-7-b5------------------------------------------b5---------------------------| 
D|----7----7----7----7-------7---------7-5-7----b5---b5---b5---b5------5---5-7-----7-7~----------------------| 
A|-------------------------------------------------7----7----7----7------7-----------------------------------| 
E|-----------------------------------------------------------------------------------------------------------| 

e|-----------------------------------------------------------------------------------------------------------| 
B|----------------b5-----------b5-7--------------------------------------------------------------------------| 
G|-b5---b5---b5---b5------b5---b5-7-b5-----------------------------------------b5-b5-------------------------| 
D|----7----7----7----7-------7---------7-5-7----b5---b5---b5---b5------5---5-7-------------------------------| 
A|-------------------------------------------------7----7----7----7------7-----------------------------------| 
E|-----------------------------------------------------------------------------------------------------------| 


verse 2 

e|-----------------------------------------------------------------------------------------------------------| 
B|-----------------------------------------------------------------------------------------------------------| 
G|-6-6----6-6------------------------------------------------------------------------------------------------| 
D|-7-7----7-7------------------------------------------------------------------------------------------------| 
A|-7-7----7-7------------------------------------------------------------------------------------------------| 
E|-5-5----5-5------------------------------------------------------------------------------------------------| 

e|-----------------------------------------------------------------------------------------------------------| 
B|-----------------------------------------------------------------------------------------------------------| 
G|-6-6--6-6-6--6-6--6-6-6--6-6--6-6-6--6-6--6-6-6--6-6--6-6-6--6-6--6-6-6--6-6--6-6-6--6-6--6-6-6------------| 
D|-7-7--7-7-7--7-7--7-7-7--7-7--7-7-7--7-7--7-7-7--7-7--7-7-7--7-7--7-7-7--7-7--7-7-7--7-7--7-7-7------------| 
A|-7-7--7-7-7--7-7--7-7-7--7-7--7-7-7--7-7--7-7-7--7-7--7-7-7--7-7--7-7-7--7-7--7-7-7--7-7--7-7-7------------| 
E|-5-5--5-0-0--5-5--5-0-0--5-5--5-0-0--5-5--5-0-0--5-5--5-0-0--5-5--5-0-0--5-5--5-0-0--5-5--5-0-0------------| 

e|-----------------------------------------------------------------------------------------------------------| 
B|-----------------------------------------------------------------------------------------------------------| 
G|-11-11--11-11-11--11-11--11-11-11--11-11--11-11-11--11-11--11-11-11----------------------------------------| 
D|-12-12--12-12-12--12-12--12-12-12--12-12--12-12-12--12-12--12-12-12----------------------------------------| 
A|-12-12--12-12-12--12-12--12-12-12--12-12--12-12-12--12-12--12-12-12----------------------------------------| 
E|-10-10--10-0--0---10-10--10-0--0---10-10--10-0--0---10-10--10-0--0-----------------------------------------| 

e|-----------------------------------------------------------------------------------------------------------| 
B|-----------------------------------------------------------------------------------------------------------| 
G|-6-6--6-6-6--6-6--6-6-6--6-6--6-6-6--6-6--6-6-6--6---------------------------------------------------------| 
D|-7-7--7-7-7--7-7--7-7-7--7-7--7-7-7--7-7--7-7-7--7---------------------------------------------------------| 
A|-7-7--7-7-7--7-7--7-7-7--7-7--7-7-7--7-7--7-7-7--7---------------------------------------------------------| 
E|-5-5--5-0-0--5-5--5-0-0--5-5--5-0-0--5-5--5-0-0--5---------------------------------------------------------| 

e|-----------------------------------------------------------------------------------------------------------| 
B|-----------------------------------------------------------------------------------------------------------| 
G|-6-6--6-6-6--6-6--6-6-6--6-6--6-6-6--6-6--6-6-6--6-6--6-6-6--6-6--6-6-6--6-6--6-6-6--6-6--6-6-6------------| 
D|-7-7--7-7-7--7-7--7-7-7--7-7--7-7-7--7-7--7-7-7--7-7--7-7-7--7-7--7-7-7--7-7--7-7-7--7-7--7-7-7------------| 
A|-7-7--7-7-7--7-7--7-7-7--7-7--7-7-7--7-7--7-7-7--7-7--7-7-7--7-7--7-7-7--7-7--7-7-7--7-7--7-7-7------------| 
E|-5-5--5-0-0--5-5--5-0-0--5-5--5-0-0--5-5--5-0-0--5-5--5-0-0--5-5--5-0-0--5-5--5-0-0--5-5--5-0-0------------| 

e|-----------------------------------------------------------------------------------------------------------| 
B|-----------------------------------------------------------------------------------------------------------| 
G|-11-11--11-11-11--11-11--11-11-11--11-11--11-11-11--11-11--11-11-11----------------------------------------| 
D|-12-12--12-12-12--12-12--12-12-12--12-12--12-12-12--12-12--12-12-12----------------------------------------| 
A|-12-12--12-12-12--12-12--12-12-12--12-12--12-12-12--12-12--12-12-12----------------------------------------| 
E|-10-10--10-0--0---10-10--10-0--0---10-10--10-0--0---10-10--10-0--0-----------------------------------------| 

e|-----------------------------------------------------------------------------------------------------------| 
B|-----------------------------------------------------------------------------------------------------------| 
G|-6-6--6-6-6--6-6--6-6-6--6-6--6-6-6--6-6--6-6-6--6-6--6-6-6------------------------------------------------| 
D|-7-7--7-7-7--7-7--7-7-7--7-7--7-7-7--7-7--7-7-7--7-7--7-7-7------------------------------------------------| 
A|-7-7--7-7-7--7-7--7-7-7--7-7--7-7-7--7-7--7-7-7--7-7--7-7-7------------------------------------------------| 
E|-5-5--5-0-0--5-5--5-0-0--5-5--5-0-0--5-5--5-0-0--5-5--5-0-0------------------------------------------------| 


Pre-Chorus 

e|-----------------------------------------------------------------------------------------------------------| 
B|-----------------------------------------------------------------------------------------------------------| 
G|-1-1-1-1-1-1-1-1-1-1-1-1-1-1-1-1--11-11-11-11-11-11-11-11-11-11-11-11-11-11-11-11-11-11--------------------| 
D|-0-0-0-0-0-0-0-0-0-0-0-0-0-0-0-0--10-10-10-10-10-10-10-10-10-10-10-10-10-10-10-10-10-10--------------------| 
A|-2-2-2-2-2-2-2-2-2-2-2-2-2-2-2-2--12-12-12-12-12-12-12-12-12-12-12-12-12-12-12-12-12-12--------------------| 
E|-0-0-0-0-0-0-0-0-0-0-0-0-0-0-0-0--10-10-10-10-10-10-10-10-10-10-10-10-10-10-10-10-10-10--------------------| 


Chorus 

e|-----------------------------------------------------------------------------------------------------------| 
B|-----------------------------------------------------------------------------------------------------------| 
G|-b5---b5---b5---b5------b5---b5-7-b5------------------------------------------b5---------------------------| 
D|----7----7----7----7-------7---------7-5-7----b5---b5---b5---b5------5---5-7-----7-7~----------------------| 
A|-------------------------------------------------7----7----7----7------7-----------------------------------| 
E|-----------------------------------------------------------------------------------------------------------| 

e|-----------------------------------------------------------------------------------------------------------| 
B|----------------b5-----------b5-7--------------------------------------------------------------------------| 
G|-b5---b5---b5---b5------b5---b5-7-b5-----------------------------------------b5-b5-------------------------| 
D|----7----7----7----7-------7---------7-5-7----b5---b5---b5---b5------5---5-7-------------------------------| 
A|-------------------------------------------------7----7----7----7------7-----------------------------------| 
E|-----------------------------------------------------------------------------------------------------------| 


Pre-solo 

Guitar 1 
e|-----------------------------------------------------------------------------------------------------------| 
B|-----------------------------------------------------------------------------------------------------------| 
G|-6---------6-6-------6-6-------4-4-4-4-4-4-----------------------------------------------------------------| 
D|-7---------7-7-------7-7-------5-5-5-5-5-5-----------------------------------------------------------------| 
A|-7---------7-7-------7-7-------5-5-5-5-5-5-----------------------------------------------------------------| 
E|-5---------0-5-------0-5-------3-3-3-3-3-3-----------------------------------------------------------------| 


Guitar 2 
e|-----------------------------------------------------------------------------------------------------------| 
B|-----------------------------------------------------------------------------------------------------------| 
G|-----------------------------------------------------------------------------------------------------------| 
D|-----------------------------------------------------------------------------------------------------------| 
A|-3p0-0--3p0-0--3p0-0--3p0-0--3p0-0--3p0-0----3p0-0--3p0-0--3p0-0--3p0-0--3p0-0--3p0-0----------------------| 
E|-----------------------------------------------------------------------------------------------------------| 

e|-----------------------------------------------------------------------------------------------------------| 
B|-----------------------------------------------------------------------------------------------------------| 
G|---------------------------------------------4-4-4-4-4-4---------------------------------------------------| 
D|---------------------------------------------5-5-5-5-5-5---------------------------------------------------| 
A|-3p0-0--3p0-0--3p0-0--3p0-0--3p0-0--3p0-0----5-5-5-5-5-5---------------------------------------------------| 
E|---------------------------------------------3-3-3-3-3-3---------------------------------------------------| 


Solo - no Guitar 1 

Guitar 2 
e|-----------------------------------------------------------------------------------------------------------| 
B|-5----5-5-5-5-5-5--5---5--5---5-5-5-5-5-5-5-5-5-5-5-5-5-------b5---b5---b5---b5---b5-----------------------| 
G|-7b9--7-7-7-7-7-7--7b9----7b9-7-7-7-7-7-7-7-7-7-7-7-7-7-5-----b5---b5---b5---b5---b5-----------------------| 
D|----------------------------------------------------------7~-----7----7----7----7----7---------------------| 
A|-----------------------------------------------------------------------------------------------------------| 
E|-----------------------------------------------------------------------------------------------------------| 
   hold bend      >         hold bend                   > 

e|---------------------------------5-------5-5-------5-5-----------------------------------------------------| 
B|-5---5-5-5-5-5-5-5-5-5-5-5-------5-7-5---5-5-7-5---5-5-7-5----5-----7-5------------------------------------| 
G|-7b9-7-7-7-7-7-7-7-7-7-7-7-5-------7-5h6-----7-5h6-----7-5h6--5h6---7-5h6----------------------------------| 
D|-----------------------------7~-----------------------------------7----------------------------------------| 
A|-----------------------------------------------------------------------------------------------------------| 
E|-----------------------------------------------------------------------------------------------------------| 
   hold bend               > 

e|-----------------------------5p0-3h5-5p0--5b6r-5b6-5-5-5-5-5-5-5-5-5-5-5-5---------------------------------| 
B|-5---5--5---5--5---5--5---5-------------------------------------------------7------------------------------| 
G|-7b9----7b9----7b9----7b9---------------------------------------------------7------------------------------| 
D|-----------------------------------------------------------------------------------------------------------| 
A|-----------------------------------------------------------------------------------------------------------| 
E|-----------------------------------------------------------------------------------------------------------| 
                                                 hold bend                 > 


Post-solo 

Guitar 1 
e|-----------------------------------------------------------------------------------------------------------| 
B|-----------------------------------------------------------------------------------------------------------| 
G|-6---------6-6-------6-6-------4-4-4-4-4-4-----------------------------------------------------------------| 
D|-7---------7-7-------7-7-------5-5-5-5-5-5-----------------------------------------------------------------| 
A|-7---------7-7-------7-7-------5-5-5-5-5-5-----------------------------------------------------------------| 
E|-5---------0-5-------0-5-------3-3-3-3-3-3-----------------------------------------------------------------| 


Guitar 2 
e|-----------------------------------------------------------------------------------------------------------| 
B|-----------------------------------------------------------------------------------------------------------| 
G|-----------------------------------------------------------------------------------------------------------| 
D|-----------------------------------------------------------------------------------------------------------| 
A|-3p0-0--3p0-0--3p0-0--3p0-0--3p0-0--3p0-0----3p0-0--3p0-0--3p0-0--3p0-0--3p0-0--3p0-0----------------------| 
E|-----------------------------------------------------------------------------------------------------------| 

e|-----------------------------------------------------------------------------------------------------------| 
B|-----------------------------------------------------------------------------------------------------------| 
G|---------------------------------------------4-4-4-4-4-4---------------------------------------------------| 
D|---------------------------------------------5-5-5-5-5-5---------------------------------------------------| 
A|-3p0-0--3p0-0--3p0-0--3p0-0--3p0-0--3p0-0----5-5-5-5-5-5---------------------------------------------------| 
E|---------------------------------------------3-3-3-3-3-3---------------------------------------------------| 


Chorus 

Guitar 1 x6 
e|-----------------------------------------------------------------------------------------------------------| 
B|-----------------------------------------------------------------------------------------------------------| 
G|-6-6-6-6-6-6-6-6-6-6-6-6-6-6-6-6-6-6-6-6-6-6-6-6-6-6-6-6-6-6-6-6-------------------------------------------| 
D|-7-7-7-7-7-7-7-7-7-7-7-7-7-7-7-7-7-7-7-7-7-7-7-7-7-7-7-7-7-7-7-7-------------------------------------------| 
A|-7-7-7-7-7-7-7-7-7-7-7-7-7-7-7-7-7-7-7-7-7-7-7-7-7-7-7-7-7-7-7-7-------------------------------------------| 
E|-5-5-5-5-5-5-5-5-5-5-5-5-5-5-5-5-5-5-5-5-5-5-5-5-5-5-5-5-5-5-5-5-------------------------------------------| 
PM * * * * * * * * * * * * * * * * * * * * * * * * * * * * * * * * 

e|-----------------------------------------------------------------------------------------------------------| 
B|-----------------------------------------------------------------------------------------------------------| 
G|-4-4-4-4-4-4-4-4-4-4-4-4-4-4-4-4-4-4-4-4-4-4-4-4-4-4-4-4-4-4-4-4-------------------------------------------| 
D|-5-5-5-5-5-5-5-5-5-5-5-5-5-5-5-5-5-5-5-5-5-5-5-5-5-5-5-5-5-5-5-5-------------------------------------------| 
A|-5-5-5-5-5-5-5-5-5-5-5-5-5-5-5-5-5-5-5-5-5-5-5-5-5-5-5-5-5-5-5-5-------------------------------------------| 
E|-3-3-3-3-3-3-3-3-3-3-3-3-3-3-3-3-3-3-3-3-3-3-3-3-3-3-3-3-3-3-3-3-------------------------------------------| 
PM * * * * * * * * * * * * * * * * * * * * * * * * * * * * * * * * 


Guitar 2} 

Starts after "jump into the main" 
e|-----------------------------------------------------------------------------------------------------------| 
B|-----------------------------------------------------------------------------------------------------------| 
G|-b5---b5---b5---b5------b5---b5-b7-b5-----------------------------------------b5---b5-b7~------------------| 
D|----7----7----7----7-------7----------7-5-7----b5---b5---b5---b5------5---5-7----7-------------------------| 
A|--------------------------------------------------7----7----7----7------7----------------------------------| 
E|-----------------------------------------------------------------------------------------------------------| 

e|-----------------------------------------------------------------------------------------------------------| 
B|------------------------------b5-7-------------------------------------------------------------------------| 
G|-b5---b5---5p0---b5------b5---b5-7-b5-----------------------------------------b5---b5----------------------| 
D|----7----7-----7----7-------7---------7-5-7----b5---b5---b5---b5------5---5-7----7-b7----------------------| 
A|--------------------------------------------------7----7----7----7------7----------------------------------| 
E|-----------------------------------------------------------------------------------------------------------| 


Outro 

Guitar 1 
e|-----------------------------------------------------------------------------------------------------------| 
B|-----------------------------------------------------------------------------------------------------------| 
G|-6-6-6-6-6-6-6-6-6-6-6-6-6-6-6-6-6-6-6-6-6-6-6-6-6-6-6-6-6-6-6-6-------------------------------------------| 
D|-7-7-7-7-7-7-7-7-7-7-7-7-7-7-7-7-7-7-7-7-7-7-7-7-7-7-7-7-7-7-7-7-------------------------------------------| 
A|-7-7-7-7-7-7-7-7-7-7-7-7-7-7-7-7-7-7-7-7-7-7-7-7-7-7-7-7-7-7-7-7-------------------------------------------| 
E|-5-5-5-5-5-5-5-5-5-5-5-5-5-5-5-5-5-5-5-5-5-5-5-5-5-5-5-5-5-5-5-5-------------------------------------------| 
PM * * * * * * * * * * * * * * * * * * * * * * * * * * * * * * * * 

e|-----------------------------------------------------------------------------------------------------------| 
B|-----------------------------------------------------------------------------------------------------------| 
G|-4-4-4-4-4-4-4-4-4-4-4-4-4-4-4-4-4-4-4-4-4-4-4-4-4-4-4-4-4-4-4-4-------------------------------------------| 
D|-5-5-5-5-5-5-5-5-5-5-5-5-5-5-5-5-5-5-5-5-5-5-5-5-5-5-5-5-5-5-5-5-------------------------------------------| 
A|-5-5-5-5-5-5-5-5-5-5-5-5-5-5-5-5-5-5-5-5-5-5-5-5-5-5-5-5-5-5-5-5-------------------------------------------| 
E|-3-3-3-3-3-3-3-3-3-3-3-3-3-3-3-3-3-3-3-3-3-3-3-3-3-3-3-3-3-3-3-3-------------------------------------------| 
PM * * * * * * * * * * * * * * * * * * * * * * * * * * * * * * * * 

e|-----------------------------------------------------------------------------------------------------------| 
B|-----------------------------------------------------------------------------------------------------------| 
G|-6-6-6-6-6-6-6-6-6-6-6-6-6-6-6-6-6-6-6-6-6-6-6-6-6-6-6-6-6-6-6-6-------------------------------------------| 
D|-7-7-7-7-7-7-7-7-7-7-7-7-7-7-7-7-7-7-7-7-7-7-7-7-7-7-7-7-7-7-7-7-------------------------------------------| 
A|-7-7-7-7-7-7-7-7-7-7-7-7-7-7-7-7-7-7-7-7-7-7-7-7-7-7-7-7-7-7-7-7-------------------------------------------| 
E|-5-5-5-5-5-5-5-5-5-5-5-5-5-5-5-5-5-5-5-5-5-5-5-5-5-5-5-5-5-5-5-5-------------------------------------------| 
PM * * * * * * * * * * * * * * * * * * * * * * * * * * * * * * * * 

e|-----------------------------------------------------------------------------------------------------------| 
B|-----------------------------------------------------------------------------------------------------------| 
G|-4-4-4-4-4-4-4-4-4-4-4-4-4-4-4-4-4-4-4-4-4-4-4-4-4-4-4-4-4-4-4-4-------------------------------------------| 
D|-5-5-5-5-5-5-5-5-5-5-5-5-5-5-5-5-5-5-5-5-5-5-5-5-5-5-5-5-5-5-5-5-------------------------------------------| 
A|-5-5-5-5-5-5-5-5-5-5-5-5-5-5-5-5-5-5-5-5-5-5-5-5-5-5-5-5-5-5-5-5-------------------------------------------| 
E|-3-3-3-3-3-3-3-3-3-3-3-3-3-3-3-3-3-3-3-3-3-3-3-3-3-3-3-3-3-3-3-3-------------------------------------------| 
PM * * * * * * * * * * * * * * * * * * * * * * * * * * * * * * * * 

e|-----------------------------------------------------------------------------------------------------------| 
B|-----------------------------------------------------------------------------------------------------------| 
G|-6-6-6-6-6-6-6-6-6-6-6-6-6-6-6-6-6-6-6-6-6-6-6-6-6-6-6-6-6-6-6-6-------------------------------------------| 
D|-7-7-7-7-7-7-7-7-7-7-7-7-7-7-7-7-7-7-7-7-7-7-7-7-7-7-7-7-7-7-7-7-------------------------------------------| 
A|-7-7-7-7-7-7-7-7-7-7-7-7-7-7-7-7-7-7-7-7-7-7-7-7-7-7-7-7-7-7-7-7-------------------------------------------| 
E|-5-5-5-5-5-5-5-5-5-5-5-5-5-5-5-5-5-5-5-5-5-5-5-5-5-5-5-5-5-5-5-5-------------------------------------------| 

e|-----------------------------------------------------------------------------------------------------------| 
B|-----------------------------------------------------------------------------------------------------------| 
G|-4-4-4-4-4-4-4-4-4-4-4-4-4-4-4-4-4-4-4-4-4-4-4-4-4-4-4-4-4-4-4-4-------------------------------------------| 
D|-5-5-5-5-5-5-5-5-5-5-5-5-5-5-5-5-5-5-5-5-5-5-5-5-5-5-5-5-5-5-5-5-------------------------------------------| 
A|-5-5-5-5-5-5-5-5-5-5-5-5-5-5-5-5-5-5-5-5-5-5-5-5-5-5-5-5-5-5-5-5-------------------------------------------| 
E|-3-3-3-3-3-3-3-3-3-3-3-3-3-3-3-3-3-3-3-3-3-3-3-3-3-3-3-3-3-3-3-3-------------------------------------------| 

e|-----------------------------------------------------------------------------------------------------------| 
B|-----------------------------------------------------------------------------------------------------------| 
G|-6-6-6-6-6-6-6-6-6-6-6-6-6-6-6-6-6-6-6-6-6-6-6-6-6-6-6-6-6-6-6-6-------------------------------------------| 
D|-7-7-7-7-7-7-7-7-7-7-7-7-7-7-7-7-7-7-7-7-7-7-7-7-7-7-7-7-7-7-7-7-------------------------------------------| 
A|-7-7-7-7-7-7-7-7-7-7-7-7-7-7-7-7-7-7-7-7-7-7-7-7-7-7-7-7-7-7-7-7-------------------------------------------| 
E|-5-5-5-5-5-5-5-5-5-5-5-5-5-5-5-5-5-5-5-5-5-5-5-5-5-5-5-5-5-5-5-5-------------------------------------------| 

e|-----------------------------------------------------------------------------------------------------------| 
B|-----------------------------------------------------------------------------------------------------------| 
G|-4-4-4-4-4-4-4-4-4-4-4-4-4-4-4-4-4-4-4-4-4-4-4-4-4-4-4-4-4-4-4-4-------------------------------------------| 
D|-5-5-5-5-5-5-5-5-5-5-5-5-5-5-5-5-5-5-5-5-5-5-5-5-5-5-5-5-5-5-5-5-------------------------------------------| 
A|-5-5-5-5-5-5-5-5-5-5-5-5-5-5-5-5-5-5-5-5-5-5-5-5-5-5-5-5-5-5-5-5-------------------------------------------| 
E|-3-3-3-3-3-3-3-3-3-3-3-3-3-3-3-3-3-3-3-3-3-3-3-3-3-3-3-3-3-3-3-3-------------------------------------------| 

e|-----------------------------------------------------------------------------------------------------------| 
B|-----------------------------------------------------------------------------------------------------------| 
G|-6-6-6-6-6-6-6-6-6-6-6-6-6-6-6-6-6-6-6-6-6-6-6-6-6-6-6-6-6-6-6-6-------------------------------------------| 
D|-7-7-7-7-7-7-7-7-7-7-7-7-7-7-7-7-7-7-7-7-7-7-7-7-7-7-7-7-7-7-7-7-------------------------------------------| 
A|-7-7-7-7-7-7-7-7-7-7-7-7-7-7-7-7-7-7-7-7-7-7-7-7-7-7-7-7-7-7-7-7-------------------------------------------| 
E|-5-5-5-5-5-5-5-5-5-5-5-5-5-5-5-5-5-5-5-5-5-5-5-5-5-5-5-5-5-5-5-5-------------------------------------------| 

e|-----------------------------------------------------------------------------------------------------------| 
B|-----------------------------------------------------------------------------------------------------------| 
G|-4-4-4-4-4-4-4-4-4-4-4-4-4-4-4-4-4-4-4-4-4-4-4-4-4-4-4-4-4-4-4-4-------------------------------------------| 
D|-5-5-5-5-5-5-5-5-5-5-5-5-5-5-5-5-5-5-5-5-5-5-5-5-5-5-5-5-5-5-5-5-------------------------------------------| 
A|-5-5-5-5-5-5-5-5-5-5-5-5-5-5-5-5-5-5-5-5-5-5-5-5-5-5-5-5-5-5-5-5-------------------------------------------| 
E|-3-3-3-3-3-3-3-3-3-3-3-3-3-3-3-3-3-3-3-3-3-3-3-3-3-3-3-3-3-3-3-3-------------------------------------------| 

at the final "jump into the mainstream kid" 
e|-----------------------------------------------------------------------------------------------------------| 
B|-5--5------------------------------------------------------------------------------------------------------| 
G|-5--5--6---------------------------------------------------------------------------------------------------| 
D|-5--5--7---------------------------------------------------------------------------------------------------| 
A|-3--3--7---------------------------------------------------------------------------------------------------| 
E|-------5---------------------------------------------------------------------------------------------------| 


Guitar 2 
e|-----------------------------------------------------------------------------------------------------------| 
B|-----------------------------------------------------------------------------------------------------------| 
G|-5-2-5-2-5-2-5--2--5-2-5-7--5-2-0-2--0---0---0---0-----0---0-2--5-2-5-7------------------------------------| 
D|-5-2-5-2-5-2-5--2--5-2-5-7--5-2-0-2--0-2-0-2-0-2-0--2--0-2-0-2--5-2-5-7------------------------------------| 
A|---------------------------------------2---2---2----2----2-------------------------------------------------| 
E|-----------------------------------------------------------------------------------------------------------| 

e|-----------------------------------------------------------------------------------------------------------| 
B|-----------------------------------------------------------------------------------------------------------| 
G|-5-2-5-2-5-2-5--2--5-2-5-7--5-2-0-2--0---0---0---0-----0---0-2--5-2-5-7------------------------------------| 
D|-5-2-5-2-5-2-5--2--5-2-5-7--5-2-0-2--0-2-0-2-0-2-0--2--0-2-0-2--5-2-5-7------------------------------------| 
A|---------------------------------------2---2---2----2----2-------------------------------------------------| 
E|-----------------------------------------------------------------------------------------------------------| 

e|-----------------------------------------------------------------------------------------------------------| 
B|-----------------------------------------------------------------------------------------------------------| 
G|-14-14-14-14-14-14-14-14-14-14-14-14-14-14-14-14-14-14-14-14-14-14-14-14-----------------------------------| 
D|-x--x--x--x--x--x--x--x--x--x--x--x--x--x--x--x--x--x--x--x--x--x--x--x------------------------------------| 
A|-12-12-12-12-12-12-12-12-12-12-12-12-12-12-12-12-12-12-12-12-12-12-12-12-----------------------------------| 
E|-----------------------------------------------------------------------------------------------------------| 

e|-----------------------------------------------------------------------------------------------------------| 
B|-----------------------------------------------------------------------------------------------------------| 
G|-14-14-14-14-14-14-14-14-14-14-14-14-14-14-14-14-14-14-14-14-14-14-14-14-----------------------------------| 
D|-x--x--x--x--x--x--x--x--x--x--x--x--x--x--x--x--x--x--x--x--x--x--x--x------------------------------------| 
A|-12-12-12-12-12-12-12-12-12-12-12-12-12-12-12-12-12-12-12-12-12-12-12-12-----------------------------------| 
E|-----------------------------------------------------------------------------------------------------------| 

e|-----------------------------------------------------------------------------------------------------------| 
B|-----------------------------------------------------------------------------------------------------------| 
G|-5-5-5-5-5-5-5-5--4-4-4-4-4-4-4-4--------------------------------------------------------------------------| 
D|-x-x-x-x-x-x-x-x--x-x-x-x-x-x-x-x--------------------------------------------------------------------------| 
A|-3-3-3-3-3-3-3-3--2-2-2-2-2-2-2-2--------------------------------------------------------------------------| 
E|-----------------------------------------------------------------------------------------------------------| 

e|-----------------------------------------------------------------------------------------------------------| 
B|-----------------------------------------------------------------------------------------------------------| 
G|-14-14-14-14-14-14-14-14-14-14-14-14-14-14-14-14-14-14-14-14-14-14-14-14-----------------------------------| 
D|-x--x--x--x--x--x--x--x--x--x--x--x--x--x--x--x--x--x--x--x--x--x--x--x------------------------------------| 
A|-12-12-12-12-12-12-12-12-12-12-12-12-12-12-12-12-12-12-12-12-12-12-12-12-----------------------------------| 
E|-----------------------------------------------------------------------------------------------------------| 

e|-----------------------------------------------------------------------------------------------------------| 
B|-----------------------------------------------------------------------------------------------------------| 
G|-14-14-14-14-14-14-14-14-14-14-14-14-14-14-14-14-14-14-14-14-14-14-14-14-----------------------------------| 
D|-x--x--x--x--x--x--x--x--x--x--x--x--x--x--x--x--x--x--x--x--x--x--x--x------------------------------------| 
A|-12-12-12-12-12-12-12-12-12-12-12-12-12-12-12-12-12-12-12-12-12-12-12-12-----------------------------------| 
E|-----------------------------------------------------------------------------------------------------------| 

e|-----------------------------------------------------------------------------------------------------------| 
B|-----------------------------------------------------------------------------------------------------------| 
G|-5-------b5-b5--5~-----------------------------------------------------------------------------------------| 
D|-----5-7--------5~-----------------------------------------------------------------------------------------| 
A|---7-------------------------------------------------------------------------------------------------------| 
E|-----------------------------------------------------------------------------------------------------------| 

************************************ 

| h   Hammer-on 
| p   Pull-off 
| r   Release 
| b   Bend 
| /   Slide up 
| \   Slide down 
| ~   Vibrato 
| PM  Palm mute 

************************************ 
		  

See also:

tabs Crosby, Stills, Nash & Young - Suite Judy Blue Eyes tabs John Denver - For You tabs Kansas - Carry On My Wayward Son tabs John Denver - Annies Song tabs Scott Joplin - The Entertainer tabs John Denver - Take Me Home, Country Roads
e-chords

Other versions:

tabs Brandi Carlile - Mainstream Kid
auto scroll beats size up size down change color hide chords drawings
tab show chords e-chords YouTube Clip e-chords hide all tabs e-chords go to top tab

share