Boy

home > Boy

Waltz For Pony Tab

Boy

Difficulty: EasyEasy

by ang%2Dletra

tuner correct add songbook print version text version save to e-mail
chordsukulelecavacokeyboardtabbassdrumsharmonicsflute Guitar Pro
chords

Waltz For Pony

  		

Intro: X2 

e|---------------------------------------------------------------| 
B|------1---1-------1---1-------1---1-------1---1----------------| 
G|------2---2-------2---2-------0---0-------0---0----------------| 
D|--3-----------3-----------3-----------3------------------------| 
A|---------------------------------------------------------------| 
E|---------------------------------------------------------------| 

Verses & Chorus: Repeat until strumming begins with same chords 

e|---------------------------------------------------------------| 
B|------1---1-------1---1-------1---1-------1---1----------------| 
G|------2---2-------2---2-------0---0-------0---0----------------| 
D|--3-----------3-----------3-----------3------------------------| 
A|---------------------------------------------------------------| 
E|---------------------------------------------------------------| 

e|---------------------------------------------------------------| 
B|------1---1-------1---1-------1---1-------1---1----------------| 
G|------2---2-------2---2-------0---0-------0---0----------------| 
D|--0-----------0------------------------------------------------| 
A|--------------------------3-----------3------------------------| 
E|---------------------------------------------------------------| 
	  

Search Paypal
auto scroll beats size up size down change color hide chords drawings
tab show chords e-chords YouTube Clip e-chords hide all tabs e-chords go to top tab