Boy

home > Boy

Boris Tab

Boy

Difficulty: EasyEasy

by aleffederico

tuner correct add songbook print version text version save to e-mail
chordsukulelecavacokeyboardtabbassdrumsharmonicsflute Guitar Pro
chords

Boris

  		
Intro: 

E|--------------|--------------|--------------|--------------| 
B|--------------|--------------|--------------|--------------| 
G|-----2-----2--|-----2-----2--|-----2-----2--|-----2-----2--| 
D|--0-----0-----|--0-----0-----|--3-----3-----|--2-----2-----| 
A|--------------|--------------|--------------|--------------| 
E|--------------|--------------|--------------|--------------| 

E|--------------|--------------|--------------|--------------| 
B|--------------|--------------|--------------|--------------| 
G|-----2-----2--|-----2-----2--|-----2-----2--|--------------| 
D|--0-----0-----|--0-----0-----|--3-----3-----|--2-----------| 
A|--------------|--------------|--------------|--------------| 
E|--------------|--------------|--------------|--------------| 


Verse 1: 

E|--------------|--------------|--------------|--------------| 
B|--------------|--------------|--------------|--------------| 
G|-----2-----2--|-----2-----2--|-----2-----2--|-----2-----2--| 
D|--0-----0-----|--0-----0-----|--3-----3-----|--2-----2-----| 
A|--------------|--------------|--------------|--------------| 
E|--------------|--------------|--------------|--------------| 

You said: Baby, come up to the office you sang at my party I owe you some money You owe me 

E|--------------|--------------|--------------|--------------| 
B|--------------|--------------|--------------|--------------| 
G|-----2-----2--|-----2-----2--|-----2-----2--|-----2-----2--| 
D|--0-----0-----|--0-----0-----|--3-----3-----|--2-----2-----| 
A|--------------|--------------|--------------|--------------| 
E|--------------|--------------|--------------|--------------| 

your lips I'm gonna give tips and I heard your boyfriend is out of town 

E|--------------|--------------|--------------|--------------| 
B|--------------|--------------|--------------|--------------| 
G|-----2-----2--|-----2-----2--|-----2-----2--|-----2-----2--| 
D|--0-----0-----|--0-----0-----|--3-----3-----|--2-----2-----| 
A|--------------|--------------|--------------|--------------| 
E|--------------|--------------|--------------|--------------| 

Baby aren't you hungry? I could feed you cookies, I could get my car keys 

E|--------------|--------------|--------------|--------------| 
B|--------------|--------------|--------------|--------------| 
G|-----2-----2--|-----2-----2--|-----2-----2--|--------------| 
D|--0-----0-----|--0-----0-----|--3-----3-----|--2-----------| 
A|--------------|--------------|--------------|--------------| 
E|--------------|--------------|--------------|--------------| 

Oh what a cute dress, but right now it's useless I heard your boyfriend is out of town 


Chorus 1: 

E|----------------------------------------------------------| 
B|----------------------------------------------------------| 
G|-----2-----2-----2-----2-----2-----2-----2-----2----------| 
D|--0-----0-----3-----2-----0-----0-----0-----0-------------| 
A|----------------------------------------------------------| 
E|----------------------------------------------------------| 

I said you~ should get out of town too 

E|----------------------------------------------------------| 
B|----------------------------------------------------------| 
G|-----2-----2-----2-----2-----2-----2-----2-----2----------| 
D|--0-----0-----3-----2-----0-----0-----0-----0-------------| 
A|----------------------------------------------------------| 
E|----------------------------------------------------------| 

I said you~ should get out of town too 


Verse 2: 

(Same as in Verse 1 here) 

You said: Baby, I know you like me 
You know that we want us, really, I'm serious 
We could have good fun and we're only young once 
And I heard your boyfriend is out of town 

Baby where are you going? 
Don't be such a diva, you can't just leave now 
Come back, don't bore me, you can't just ig|nore me. 
Isn't your boyfriend out of town? I said yes. 


Chorus 2: 

(Same as in Chorus 1 here) 

And you~ should get out of town too 
I said you~ should get out of town too 
I said you~ should get out of town too 
I said you, you~ should get out of town too 


Solo: 

(This is actually a cello solo but I tabbed it for the guitar) 

E|---------------|---------------|---------------|---------------| 
B|---------------|---------------|---------------|---------------| 
G|---------------|---------------|---------------|---------------| 
D|----7~---------|--8p7~---------|----7/10~------|----10~~-------| 
A|---------------|---------------|---------------|---------------| 
E|---------------|---------------|---------------|---------------| 

E|---------------|---------------|---------------|---------------| 
B|---------------|---------------|---------------|---------------| 
G|---------------|---------------|---------------|---------------| 
D|----6/7~-------|-----8p7~------|------10~------|-----10~\8~----| 
A|---------------|---------------|---------------|---------------| 
E|---------------|---------------|---------------|---------------| 

E|---------------|---------------|---------------|---------------| 
B|---------------|---------------|---------------|---------------| 
G|---------------|---------------|---------------|---------------| 
D|----6~-7~------|-----8p7~------|-----3~--------|----5~---6~----| 
A|---------------|---------------|---------------|---------------| 
E|---------------|---------------|---------------|---------------| 

E|---------------|---------------|---------------|---------------| 
B|---------------|---------------|---------------|---------------| 
G|---------------|---------------|---------------|---------------| 
D|----6~-7~------|------7~-------|-----5~--------|------3~-------| 
A|---------------|---------------|---------------|---------------| 
E|---------------|---------------|---------------|---------------| 


Chorus 3: 

(Same as in Chorus 1, 2 here) 

I said you~ should get out of town too 
I said you~ should get out of town, out of town, out of town 
I said you, you, you, you should get out of town too~ 
I said you, you you should get out of town too 

Verse 3: 

(No playing) 
I said: Baby, come up to the office 
You sang at my party I owe you some money 
You owe me your lips I'm gonna give tips 
And I heard your boyfriend is out of town 
	  

Search Paypal
auto scroll beats size up size down change color hide chords drawings
tab show chords e-chords YouTube Clip e-chords hide all tabs e-chords go to top tab