Boy Pablo

Ur Phone

Boy Pablo

tabs

by  TARIKIKE

save to print version add songbook text version e-mail correct tuner
chordsukulelecavacokeyboardtabbassdrumsharmonicaflute Guitar Pro
close

there isn't a video lesson for this song

chords

Ur Phone

	  		Intro 

e|---11--11--10---|--------------------|---------------|---10----------10----| 
B|----------------|---13--11--11--10---|---------------|---------------------| 
G|----------------|--------------------|---10--10\12---|-------12--12--------| 
D|----------------|--------------------|---------------|---------------------| 
A|----------------|--------------------|---------------|---------------------| 
E|----------------|--------------------|---------------|---------------------| 

e|---11--11--10---|--------------------|---------------|---10----------10----|---13--13------13---------| 
B|----------------|---13--11--11--10---|---------------|---------------------|-----------15------(15)---| 
G|----------------|--------------------|---10--10\12---|-------12--12--------|--------------------------| 
D|----------------|--------------------|---------------|---------------------|--------------------------| 
A|----------------|--------------------|---------------|---------------------|--------------------------| 
E|----------------|--------------------|---------------|---------------------|--------------------------| 
                                                                              You didn't pick up your phone 
************************************ 

| /   Slide up 
| \   Slide down 

************************************ 
		  

See also:

tabs Ira! - Envelhešo Na Cidade(Solo - Acustivo Mtv) tabs Deep Purple - No No No tabs Deep Purple - Black Night tabs Deep Purple - Smoke on the water(ver. 2) tabs Deep Purple - Since Youve Been Gone tabs Albert Hammond Jr - In My Room
e-chords

Other versions:

tabs Boy Pablo - Ur Phone
auto scroll beats size up size down change color hide chords drawings
tab show chords e-chords YouTube Clip e-chords hide all tabs e-chords go to top tab

share