Box Car Racer

home > Box Car Racer

Mandy (live) Tab

Box Car Racer

Difficulty: nolevelnolevel

by fboy

tuner correct add songbook print version text version save to e-mail
chordsukulelecavacokeyboardtabbassdrumsharmonicsflute Guitar Pro
chords

Mandy (live)

  		G:------------------------- 
D:------------------------- 
A:-2~---------2~----------- 
E:------2~---------2~------ 

G:-----------------------------------------------: 
D:-----------------------------------------------: 
A:-2~--------------------------------------------: 
E:------4~--0~--2~--2--0-2-----------------------: x2 

G:-----------------------------------------------: 
D:-----------------------------------------------: 
A:-22222222--------------------------------------: x2 
E:---------44444444-22222222-00000000------------: 

G:------------------------- 
D:------------------------- 
A:-2~---------2~----------- 
E:------2~---------2~------ 

G:-----------------------------------------------: 
D:-----------------------------------------------: 
A:-2~--------------------------------------------: 
E:------4~--0~--2~--2--0-2-----------------------: x2 

G:-----------------------------------------------: 
D:-----------------------------------------------: 
A:-22222222--------------------------------------: 
E:---------44444444-22222222-00000000------------: x4 

G:-----------------------------------------------: 
D:-----------------------------------------------: 
A:-666666666-77777777---4---1--------------------: x3 
E:-----------------------------------------------: 

G:-----------------------------------------------: 
D:-----------------------------------------------: 
A:-2-2-2-2---------------------------------------: 
E:---------2-2-2-2-0000000000000000--------------: 

G:-----------------------------------------------: 
D:-----------------------------------------------: 
A:-22222222--------------------------------------: 
E:---------44444444-22222222-00000000------------: x4 

G:-----------------------------------------------: 
D:-----------------------------------------------: 
A:-44444444--------------------------------------: 
E:---------66666666-44444444-22222222------------: x4 

G:------------------ 
D:------------------ 
A:------6~---------- 
E:------------------ 

[email protected] 

	  

Search Paypal
auto scroll beats size up size down change color hide chords drawings
tab show chords e-chords YouTube Clip e-chords hide all tabs e-chords go to top tab