Box Car Racer

home > Box Car Racer

Elevator Tab

Box Car Racer

Difficulty: nolevelnolevel

tuner correct add songbook print version text version save to e-mail
chordsukulelecavacokeyboardtabbassdrummharmonicsflute Guitar Pro
chords

Elevator

  		Standard Tuning 
low to high - EADGBE

wow, ok first off this song is very repetitive so it only 
needed one part to play through the whole song.
Second of all this was very hard to figure out because it 
was just so noisy but I think I got it good. Itís kind of 
like Good Riddance by Green Day because you can play more 
strings than your supposed to sometimes and it still sounds
good. So just make sure you read the rhythm right to get it
to sound right.

You come in at an offbeat so listen carefully
E|---------------------------------|
B|---------------------------------|
G|---------0-----0-----0-------0---|
D|---------4-----5-----5-------5---|
A|---------X-----X-----X-------X---|
E|-3-3-3-3-3-3-3-3-3-3-3-3-3-3-3-3-|
                                    X a lot till fadeout
E|---------------------------------|
B|-------------0-------------------|
G|-----0-------0-------0-------0---|
D|-----10------9-------9-------9---|
A|-----X-------X-------X-------X---|
E|-8-8-8-8-8-8-8-8-7-7-7-7-7-7-7-7-|


Plus Iím pretty sure the guitar 2 part that 
the other guy that tried to tab didnít 
even spell the name or tab right is :
E|---------------------------------|
B|---------------------------------|
G|---------------------------------|
D|-5-5-5-5-5-5-5-5-5-5-5-5-5-5-5-5/|
A|-X-X-X-X-X-X-X-X-X-X-X-X-X-X-X-X-|
E|-3-3-3-3-3-3-3-3-3-3-3-3-3-3-3-3/|
                                      X a lot till fadeout
E|---------------------------------|
B|---------------------------------|
G|---------------------------------|
D|/10101010101010109-9-9-9-9-9-9-9-|
A|-X-X-X-X-X-X-X-X-X-X-X-X-X-X-X-X-|
E|/8-8-8-8-8-8-8-8-7-7-7-7-7-7-7-7-|

and thatís it
pretty easy huh?
Wow a one page tab 
I have plenty of room left to write on here
I know ill plug my bands site!
Click here if you want to go to it:
http://www.geocities.com/tesseract182
	  

Search Paypal
auto scroll beats size up size down change color hide chords drawings
tab show chords e-chords YouTube Clip e-chords hide all tabs e-chords go to top tab