Boogarins

Lucifernandes

Boogarins

tabs

by  VICTBORGES

save to print version add songbook text version e-mail correct tuner
chordsukulelecavacokeyboardtabbassdrumsharmonicaflute Guitar Pro
close

there isn't a video lesson for this song

chords

Lucifernandes

	  		


Riff 1 


E|----------------------------------------| 
B|----------------------------------------| 
G|-------777--5-4-------------------------| 
D|----------------7-5-4-------------------| 
A|----5-------------------5---------------| 4x 
E|----------------------------------------| 


Riff 2 


E|---------------------------------------| 
B|---------------------------------------| 
G|------7-5-4-5-4---4--------------------| 
D|----------------7---7-5-7-5-4-5--------| 
A|--------------------------------7-5----| 1x 
E|---------------------------------------| 





D 
Menina perdida no céu azul 
Muito moderna fugiu pro sul 
C               Bb 
Ela caiu do céu 

Riff 

D 
Miss lisergia de 69 
No ano não se apaixonou 
       C         Bb 
Por nenhum rapaz 

Bb             C 
Lucifernandis das cordilheiras 
Riff1 - D 
Deu-me os livros 
Abriu-me a cabeça 
Bb            C        Bb 
Lucifernandis lá do sul 

D 
O escuro da mente trai 
O escuro da mente faz 

Riff 1 + Riff 2  

Bb             C 
Lucifernandis das cordilheiras 
Riff1 - D 
Deu-me os livros 
Abriu-me a cabeça 
Bb            C 
Lucifernandis lá do sul 
		  

Full key step upFull key step up
Half key step upHalf key step up
Half key step downHalf key step down
Full key step downFull key step down
hide glossary

See also:

tabs Jota Quest - Mais Uma Vez tabs Los Hermanos - Anna Julia tabs Cássia Eller - Malandragem (Acoustic) tabs Legião Urbana - Será tabs Legião Urbana - Hoje A Noite Não Tem Luar tabs Legião Urbana - Eduardo E Mônica
e-chords

Other versions:

tabs Boogarins - Lucifernandes
auto scroll beats size up size down change color hide chords drawings
tab show chords e-chords YouTube Clip e-chords hide all tabs e-chords go to top tab

share