Bonde da Stronda

home > Bonde da Stronda

Paixão Tab

Bonde da Stronda

Difficulty: nolevelnolevel

by runk

tuner correct add songbook print version text version save to e-mail
chordsukulelecavacokeyboardtabbassdrumsharmonicsflute Guitar Pro
chords

Paixão

  			 
Dedilhado inicial: 
1° Parte: 


E|-6-7-9-2-2-2-11-7-6-3h4------------------| 
B|-----------------------------------------| 
G|-----------------------------------------| 
D|-----------------------------------------| 
A|-----------------------------------------| 
E|-----------------------------------------| 


2° Parte: 

E|-2-3-5-7-5-3-10h11-9-7-9-----------------| 
B|-----------------------------------------| 
G|-----------------------------------------| 
D|-----------------------------------------| 
A|-----------------------------------------| 
E|-----------------------------------------| 


3° Parte: 

E|-6-7-9-3h4-2------------------------------------------| 
B|-------------3h4-6-7-8h9-7-6-4-2-3h4-6-7-10-11-10-7h8-| 
G|------------------------------------------------------| 
D|------------------------------------------------------| 
A|------------------------------------------------------| 
E|------------------------------------------------------| 
	  

Search Paypal
auto scroll beats size up size down change color hide chords drawings
tab show chords e-chords YouTube Clip e-chords hide all tabs e-chords go to top tab