Bonde da Stronda

home > Bonde da Stronda

Belo Par Tab

Bonde da Stronda

Difficulty: BeginnerBeginner

by jov%2Dcorrea

tuner correct add songbook print version text version save to e-mail
chordsukulelecavacokeyboardtabbassdrumsharmonicsflute Guitar Pro
chords

Belo Par

  		Base: 
G D/F# Em Bm7 C G/B Am7 D11 

Tablatura (melhor com 2 violões): 
     G                      D/F#                   Em 
E||--3--------6--8--10----|--2--------13--------|--0---------6--8--10------| 
B||--3--------------------|--3------------------|--0-----------------------| 
G||--0--------------------|--2------------------|--0-----------------------| 
D||--0--------------------|--0------------------|--2-----------------------| 
A||--2--------------------|--0------------------|--2-----------------------| 
E||--3--------------------|--2------------------|--0-----------------------| 


 Bm7                    C                       G/B               
--2---------13-------|--0--------6--8--10----|--3---------6--8--10----| 
--3------------------|--1--------------------|--3---------------------| 
--2------------------|--0--------------------|--0---------------------| 
--4------------------|--2--------------------|--0---------------------| 
--2------------------|--3--------------------|--2---------------------| 
---------------------|-----------------------|------------------------| 


  Am7                      D11  
---0--------6--8--10----|--3--------8~-------| 
---1--------------------|--3-----------------| 
---0--------------------|--2-----------------| 
---2--------------------|--0-----------------| 
---0--------------------|--------------------| 
------------------------|--------------------| 

Situação estranha quando estou longe de você 
Situação confortável é ouvir meu bem querer 
Te amo de verdade nossa história de cinema 
Muito mais que isso nossa história é um poema 
Tu sabe que eu faço tudo que você quiser 
Assumo sou seu homem, você é minha mulher 
Mas não perco sentido nem a sua compução 
Formamos um belo par sem fachada e ilusão 
Sabemos encarar o dia-a-dia honestamente 
Sempre com disciplina pois tudo foi de repente 
Mas tenho um alívio que encontro no seu beijo 
Me faz ficar em paz, é só você que eu desejo 
Desejo e te vejo numa praia anoiteçendo  
Deitada no meu colo, meu casaco te aqueçendo 
É difícil encontrar uma palavra que te descreva 
Só sei que vou te amar onde quer que você esteja 

Refrão 2x 
Meu amor só você me deixa assim, 
Declarações por você não terá fim 
Modestia a parte minha, eu preciso comentar 
parece que nós dois formamos um belo par  

Um belo par de causar inveja a qualquer um 
Nossa relação é clara não vejo problema algum 
E o que aconteçe daqui pra frente, 
Temos que encarar e saber usar a mente 
O calor de nossos corpos aqueçe uma lareira 
O que eu digo pra você não é de brincadeira 
E o mais engraçado de todo esse nosso caso 
É que tudo aconteçeu muito estranho e por acaso 
Antigamente eu pensava em uma namorada 
Mas nesse meio tempo pensei que era fachada 
Não foi preciso suar nem que as pessoas se estressem 
Pois é quando não esperamos que as coisas aconteçem 
Você tem tudo que eu não encontro em outra mulher 
Tá sempre disponível na hora que eu quiser 
É muito bom viver contigo, eu não estou errado 
Agradeço muito a Deus por ter te encontrado 

Refrão 
Meu amor só você me deixa assim 
Declarações por você não terá fim 
Modestia a parte a minha, eu preciso comentar 
parece que nós dois formamos um belo par 


STRONDA MUSIC 
	  

Full key step upFull key step up
Half key step upHalf key step up
Half key step downHalf key step down
Full key step downFull key step down
Search Paypal
auto scroll beats size up size down change color hide chords drawings
tab show chords e-chords YouTube Clip e-chords hide all tabs e-chords go to top tab