Bon Jovi

home > Bon Jovi

We Dont Run Tab

Bon Jovi

Difficulty: nolevelnolevel

by tarikike

tuner correct add songbook print version text version save to e-mail
chordsukulelecavacokeyboardtabbassdrumsharmonicsflute Guitar Pro
chords

We Dont Run

  		   
Lead 
e|----------------------------14------16----------------| 
B|-------16------17-------12------14--------------------| 
G|---13------16-----------------------------------------| 
D|------------------------------------------------------| 
A|------------------------------------------------------| 
E|------------------------------------------------------| 

Rhythm 

e|-----------------------------------------------------| 
B|-----------------------------------------------------| 
G|-----------------------------------------------------| 
D|---6--6--6--6--6--6--6--6--6--6--6--6--9--9--11--11--| 
A|---6--6--6--6--6--6--6--6--6--6--6--6--9--9--11--11--| 
E|---4--4--4--4--4--4--4--4--4--4--4--4--7--7--9---9---| 

e|-----------------------------------------------------| 
B|-----------------------------------------------------| 
G|-----------------------------------------------------| 
D|---6--6--6--6--6--6--6--6--6--6--6--6--9--9--9--9----| 
A|---6--6--6--6--6--6--6--6--6--6--6--6--9--9--9--9----| 
E|---4--4--4--4--4--4--4--4--4--4--4--4--7--7--7--7----| 

Rhythm 

e|-----------------------------------------------------| 
B|-----------------------------------------------------| 
G|-----------------------------------------------------| 
D|---6--6--6--6--6--6--6--6--6--6--6--6--9--9--11--11--| 
A|---6--6--6--6--6--6--6--6--6--6--6--6--9--9--11--11--| 
E|---4--4--4--4--4--4--4--4--4--4--4--4--7--7--9---9---| 

e|-----------------------------------------------------| 
B|-----------------------------------------------------| 
G|-----------------------------------------------------| 
D|---6--6--6--6--6--6--6--6--6--6--6--6--9--9--9--9----| 
A|---6--6--6--6--6--6--6--6--6--6--6--6--9--9--9--9----| 
E|---4--4--4--4--4--4--4--4--4--4--4--4--7--7--7--7----| 

Chorus 

e|-----------------------------------------------------------------------------------------------------| 
B|-----------------------------------------------------------------------------------------------------| 
G|---------------------9--9--9--9--9--9--9--9--9--9--------------------11-11-11-11-11-11-11-11-11-11---| 
D|---6--6--6--6--6--6--9--9--9--9--9--9--9--9--9--9--9--9--9--9--9--9--11-11-11-11-11-11-11-11-11-11---| 
A|---6--6--6--6--6--6--7--7--7--7--7--7--7--7--7--7--9--9--9--9--9--9--9--9--9--9--9--9--9--9--9--9----| 
E|---4--4--4--4--4--4--------------------------------7--7--7--7--7--7----------------------------------| 
	  

Search Paypal
auto scroll beats size up size down change color hide chords drawings
tab show chords e-chords YouTube Clip e-chords hide all tabs e-chords go to top tab