Bon Jovi

home > Bon Jovi

Unbreakable Tab

Bon Jovi

Difficulty: AdvancedAdvanced

by europeu

tuner correct add songbook print version text version save to e-mail
chordsukulelecavacokeyboardtabbassdrumsharmonicsflute Guitar Pro
chords

Unbreakable

  		Tuning:Drop D 
 
 
 
Intro/Verse 
|-----------------------------------------------------------------| 
|-----------------------------------------------------------------| 
|-----------------------------------------------------------------| 
|--10-----10--13---6------6---5---3------3---1---5/6---6---6---5--| 
|--10-----10--13---6------6---5---3------3---1---5/6---6---6---5--| 
|--10-----10--13---6------6---5---3------3---1---5/6---6---6---5--| 
 
Pre Chorus 
|-----------------------------------------------------------------| 
|-----------------------------------------------------------------| 
|-----------------------------------------------------------------| 
|--6---6---6---6---3---3---3---3---5---5---5---5---8---8---8---8--| 
|--6---6---6---6---3---3---3---3---5---5---5---5---8---8---8---8--| 
|--6---6---6---6---3---3---3---3---5---5---5---5---8---8---8---8--| 
 
Chorus 
|-----------------------------------------------------------------| 
|-----------------------------------------------------------------| 
|-----------------------------------------------------------------| 
|--10--10--10--10--13--13--13--13--6---6---6---6---5---5---8---8--| 
|--10--10--10--10--13-?13?-13-?13?-6---6---6---6---5---5---8---8--| 
|--10--10--10--10--13?-13?-13?-13--6---6---6---6---5---5---8---8--| 
 
Chorus 2 
|-----------------------------------------------------------------| 
|-----------------------------------------------------------------| 
|-----------------------------------------------------------------| 
|--10--------------13--------------6---------------5---5---8---8--| 
|--10--------------13-?----------?-6---------------5---5---8---8--| 
|--10--------------13?-------------6---------------5---5---8---8--| 
 
 
ORDER 
 
Intro/Verse x3 
Pre Chorus 
Chorus x2 
Intro/Verse x3 
Pre Chorus 
Chorus x2 
Intro/Verse 
Intro/Verse x2 (solo by 2nd Gtr) 
Pre Chorus 
Chorus 2 
Chorus x3 
Intro/Verse x2 

	  

Full key step upFull key step up
Half key step upHalf key step up
Half key step downHalf key step down
Full key step downFull key step down
Search Paypal
auto scroll beats size up size down change color hide chords drawings
tab show chords e-chords YouTube Clip e-chords hide all tabs e-chords go to top tab