Bon Jovi

home > Bon Jovi

Runaway Tab

Bon Jovi

Difficulty: nolevelnolevel

by Acelot

tuner correct add songbook print version text version save to e-mail
chordsukulelecavacokeyboardtabbassdrumsharmonicsflute Guitar Pro
chords

Runaway

Year: 1984 - Album: Cross Road

(Bon Jovi / Karak)

  		
Intro: E5 G5 A5 E5 G5 

e|-----------------------------------| 
B|-----------------------------------| 
G|-----------5(ha)al-----------------| 
D|---2----5-------------2---5--------| 
A|-2-0--2-5-----------2-0-2-5--\--\--| 
E|-0----0-3-----------0---0-3--\--\--| 

Parta A: E5 A5 E5 G5 E5 F5 G5 A5 G5 E5 G5 A5  

e|----------------------| 
B|---------------5--5-5-| 
G|---------------5--5-5-| 
D|-----------2---5--5-5-| 
A|-0-2-3-2---0----------| 
E|---------3------------| 

Pre-Chorus C5 G5 

e|-12ha----------------------------------------------| 
B|-----12ha-----------10-----------------------------| 
G|---------12ha----------9--------7ha----------------| 
D|--------------12ha--------10---------7(ha)a1--5--5-| 
A|-----------------------------12---------------3--5-| 
E|-------------------------------------------------3-| 

Chorus: A5 G5 C5 E5 G5 A5 A5 G5 A5 

Solo: 

e|-------------------------------------| 
B|-------------------------------------| 
G|7b9--7b9--7b9--7b9--7b9--7b9-7b9~~~~-| 
D|-------------------------------------| 
A|-------------------------------------| 
E|-------------------------------------| 

e|-----------------------------------------------------------| 
B|-5-8---------------------5-8-------------------------------| 
G|------7b9r7-5---5-7-5-7b9-----7b9r7-5-7p5------------------| 
D|--------------7---------------------------7-5\3b4----------| 
A|--------------------------------------------------5~~-3-5--| 
E|-----------------------------------------------------------| 

e|--------------/8-8-----------10-- 
B|-------------------10~~\-/10----10--12b13-12b13-(13)r12-10----10h12-| 
G|-------/5-5------------------------------------------------12-------| 
D|------------7-------------------------------------------------------| 
A|-3-3----------------------------------------------------------------| 
E|--------------------------------------------------------------------| 

e|-10------------15----------15----------15-----------------| 
B|----12p10------15b17r15b17-15b17r15b17-15b17r15p13--------| 
G|----------12~~\------------------------------------14~~---| 
D|----------------------------------------------------------| 
A|----------------------------------------------------------| 
E|----------------------------------------------------------| 

e|----------------------------------------------15----15-17------------| 
B|----------5------8-----13-----15------17--/17----17------20b22-20b22-| 
G|---5---/7-----/9---/14----/17-----/19--------------------------------| 
D|/7-------------------------------------------------------------------| 
A|---------------------------------------------------------------------| 
E|---------------------------------------------------------------------| 

e|------17-19-20-19-17---17h19p17----17h19h20p19p17----17-------17------| 
B|20b22----------------20---------20----------------20----20-17---20-17-| 
G|----------------------------------------------------------------------| 
D|----------------------------------------------------------------------| 
A|----------------------------------------------------------------------| 
E|----------------------------------------------------------------------| 

e|---------------------------------------------| 
B|----17---------------------------------------| 
G|-19----19~~-17-------17b---------------------| 
D|---------------19-17-----19-17-19-17---------| 
A|-------------------------------------19-19~~-| 
E|---------------------------------------------| 

End Chorus: A5 G5 C5 E5 G5 A5 G5 A5 

e|-----------------| 
B|-----------------| 
G|-----------------| 
D|---------------2-| 
A|-0-2-3-5-3-2---0-| 
E|-------------3---| 
	  

Full key step upFull key step up
Half key step upHalf key step up
Half key step downHalf key step down
Full key step downFull key step down
Search Paypal
auto scroll beats size up size down change color hide chords drawings
tab show chords e-chords YouTube Clip e-chords hide all tabs e-chords go to top tab