Bodo Wartke

Regen

Bodo Wartke

tabs nolevel nolevel

by  VSWORLD

save to print version add songbook text version e-mail correct tuner
chordsukulelecavacokeyboardtabbassdrumsharmonicaflute Guitar Pro
close

there isn't a video lesson for this song

chords

Regen

	  		

INTRO: 
                                                             
E||-----1-1----1-----1-1----1--|-----1-1----1-----1-1-----1---|-----1-1-----1------1-1-----1---| 
B||-----3-3----3-----3-3----3--|-----3-3----3-----3-3-----3---|-----3-3-----3------3-3-----3---| 
G||-----2-2----2-----2-2----2--|-----2-2----2-----2-2-----2---|-----2-2-----2------2-2-----2---| 
D||----------------------------|------------------------------|--0--------------0--------3-L-0-| 
A||----------------------------|------------------0-L-------0-|-----------0-L-3----------------| 
E||----------------------------|----------------------3-1-3---|--------------------------------| 

                                VER 1: 
                       "Ein Phäno- men..."                "es ist  Hochsommer..."            "weil 
                                                          
-----1-1-----1------1-1-----1---|-----1-1-----1------1-1-----1---|-----0-0-----0-----1-1-----1---| 
-----3-3-----3------3-3-----3---|-----3-3-----3------3-3-----3---|-----1-1-----1-----3-3-----3---| 
-----0-0------------2-2-----2---|-----2-2-----2------2-2-----2---|-----0-0-----0-----2-2-----2---| 
-----------------0--------------|--0--------2-L-0-3--------0-L-0-|----------------0--------------| 
--------------------------0-L-3-|--------------------------------|--3--------3-------------0-L-3-| 
--3--------1-L-0----------------|--------------------------------|-------------------------------| 


"Petrus..."                 "ge-  legendlich..."          "Und das tut er..." 
                                                          
-----1-1-----1------1-1-----1---|-----0-0-----0------1-1-----1---|-----1-1-----1-----1-1-----1---| 
-----3-3-----3------3-3-----3---|-----1-1-----1------3-3-----3---|-----3-3-----3-----3-3-----3---| 
-----2-2-----2------2-2-----2---|-----0-0-----0------2-2-----2---|-----3-3-----3-----3-3-----3---| 
--0--------2-L-0-3--------0-L-0-|-----------------0--------------|-------------------------------| 
--------------------------------|--3--------3--------------4-L-3-|--1--------1----1--------3-L-4-| 
--------------------------------|--------------------------------|-------------------------------| 

  "Natürlich..."                 "Hier auf..."           "...mir  vor als ob..."             "Das 
                                                        
-----1-1-----1-----1-1-----1---|-----1-1-----1------1-1-----1---|-----3-3-----3---0---------0---| 
-----3-3-----3-----3-3-----3---|-----3-3-----3------3-3-----3---|-----2-2-----2---2---------2---| 
-----2-2-----2-----2-2-----2---|-----3-3-----3------4-4-----4---|-----0-0-----0---2---------2---| 
--0--------0----0--------------|--------------------------------|-------------------------------| 
-------------------------4-L-3-|--1--------1---1-2--------2---2-|-----------------0-------0---3-| 
-------------------------------|--------------------------------|--0--------3---4---------------| 

VER 2 
  Publikum..."               "hat irgendwie..."       "...seh sie wie sie auf der..."        "und 
                                                          
-----1-1-----1------1-1-----1---|-----0-0-----0-----1-1-----1---|-----1-1-----1------1-1-----1---| 
-----3-3-----3------3-3-----3---|-----1-1-----1-----3-3-----3---|-----3-3-----3------3-3-----3---| 
-----2-2-----2------2-2-----2---|-----0-0-----0-----2-2-----2---|-----2-2-----2------2-2-----2---| 
--0--------2-L-0-3--------0-L-0-|----------------0--------------|--0--------2-L-0-3--------0-L-0-| 
--------------------------------|--3--------3-------------0-L-3-|--------------------------------| 
--------------------------------|-------------------------------|--------------------------------| 


 wie sie auf der..."        "Ich  glaub mir hört..."     "und die wenigen..."               "ich 
                                                          
-----0-0-----0------1-1-----1---|-----1-1-----1-----1-1-----1---|-----1-1-----1-----1-1-----1---| 
-----1-1-----1------3-3-----3---|-----3-3-----3-----3-3-----3---|-----3-3-----3-----3-3-----3---| 
-----0-0-----0------2-2-----2---|-----3-3-----3-----3-3-----3---|-----2-2-----2-----2-2-----2---| 
-----------------0--------------|-------------------------------|--0--------0----0--------------| 
--3--------3--------------4-L-3-|--1--------1----1--------3-L-4-|-------------------------4-L-3-| 
--------------------------------|-------------------------------|-------------------------------| 


 glaub ich stand..."     "...der Klimawandel..." "braucht?"           "Deswegen bin ich.." 
                                          .       
-----1-1-----1------1-1-----1---|-----3-3-----3------0-0-----0--|--0---------| 
-----3-3-----3------3-3-----3---|-----2-2-----2------2-2-----2--|--2---------| 
-----3-3-----3------4-4-----4---|-----0-0-----0------2-2-----2--|--2---------| 
--------------------------------|-------------------------------|------------| 
--1--------1---1-2--------2---2-|-----------------0--------0----|--0---------| 
--------------------------------|--0--------3---4---------------|------------| 



REFRAIN 
"Gegen"         "Regen"      "der  Regen"  "aufzu-regen"           "Regen"              "depres- 
                                                          
-----1-1-----1------1-1-----1---|-----1-1-----1------1-1-----1---|-----1-1-----1------1-1----1--| 
-----3-3-----3------3-3-----3---|-----3-3-----3------3-3-----3---|-----3-3-----3------3-3----3--| 
-----2-2-----2------2-2-----2---|-----0-0------------2-2-----2---|-----2-2-----2------2-2-0--1--| 
--0--------------0--------3-L-0-|-----------------0--------------|--0--------2-L-0-3------------| 
-----------0-L-3----------------|--------------------------0-L-3-|------------------------------| 
--------------------------------|--3--------1-L-0----------------|------------------------------| 


 siv..."                  "immer-  zu..."                     "er nieder..."                  "des- 
                                                          
-----0-0-----0------0-0-----0---|-----1-1-----1------0-0-----0---|-----1-1-----1------1-1-----1---| 
-----2-2-----2------2-2-----2---|-----3-3-----3------3-3-----3---|-----3-3-----3------3-3-----3---| 
-----2-2-----2------2-2-----2---|-----2-2-----2------0-0-----0---|-----4-4-----4------3-3-----3---| 
--------------------------0-2-0-|--3--------2---0----------------|--------------------------------| 
--0--------0-----0--------------|-----------------3--------3---0-|--2--------2---0-1--------1-----| 
--------------------------------|--------------------------------|------------------------------3-| 


 wegen..."                 "auch  mega    nega-  tiv" 
                               
-----0-0-----0------0-0-----0---|-----1-1-----1---1----| 
-----2-2-----2------2-2-----2---|-----3-3-----3---3----| 
-----2-2-----2-2----2-2-----2---|-----2-2-----2---2----| 
-----------2--------------------|--0------0-------0----| 
--0--------------0--------3-L-4-|-----------3-L-4------| 
--------------------------------|----------------------| 



OLO 
                            
/5--3-1-3-5-|--1--------------1------------1-| 
------------|-----3-3-----3------3-3-----3---| 
------------|-----2-2-----2------2-2-----2---| 
------------|--0--------------0--------3-L-0-| 
------------|-----------0-L-3----------------| 
------------|--------------------------------| 

                                                          
--3-1-3-1-3-1-3-5-1--------------|--1--------------1--1---3--4--|---------------0-L----------0---| 
------3-3-----3------3-3-----3---|-----3-3-3---3------3-3----3--|-----2-2-2---2------2-2---3-2---| 
------0-0------------2-2-----2---|-----2-2-----2------2-2-0--1--|--2--2-2-----2------2-2-----2---| 
------------------0--------------|--0--------2-L-0-3------------|--------------------------0-2-0-| 
---------------------------0-L-3-|------------------------------|--0--------0-----0--------------| 
--3---------1-L-0----------------|------------------------------|--------------------------------| 


                                                          
--1--1---0---1-0-L-----------3-1-|--3--1---3---1-5-L--------------|-----------------1--0-----------| 
-----3-3-----3-----3-L-3-----3---|-----3-3-----3------3-3-----3---|--2--2-2-----2-2----2-2-3---2---| 
-----2-2-----2-------0-0-----0---|--------------------3-3-----3---|-----2-2-2---2-2----2-2-----2---| 
--3--------2---0-----------------|--------------------------------|-----------2--------------------| 
-----------------3---------3---0-|--2--------2---0-1--------1-----|--0--------------0--------0-L-3-| 
---------------------------------|------------------------------3-|--------------------------------| 

BREAK 
"sollte"              "Pro -testsong"         "meinet -wegen"              "oder 
                                              
--1-------1---1-------1---|--0-------0---1-------1---|--1-------1---1-------1---| 
--3-------3---3-------3---|--1-------1---3-------3---|--3-------3---3-------3---| 
--2-------2---2-------2---|--0-------0---2-------2---|--2-------2---2-------2---| 
--0-------2---3-------0---|--------------0-------0---|--0-------2---3-------0---| 
--------------------------|--3-------3---------------|--------------------------| 
--------------------------|--------------------------|--------------------------| 

 Reagan"     "Regen 
                   
--0-------0---1----------|| 
--1-------1---3----------|| 
--0-------0---2----------|| 
--------------0----------|| 
--3-------3--------------|| 
-------------------------|| 
 
		  

See also:

tabs Bodo Wartke - Regen
e-chords

Other versions:

tabs Bodo Wartke - Regen tabs Fear Factory - Regenerate
auto scroll beats size up size down change color hide chords drawings
tab show chords e-chords YouTube Clip e-chords hide all tabs e-chords go to top tab

share with facebook