Blur

Song 2 (ver. 2)

Blur

tabs Beginner beginner

by  ANDERSON ROCK

save to print version add songbook text version e-mail correct tuner
chordsukulelecavacokeyboardtabbassdrumsharmonicaflute Guitar Pro
close

there isn't a video lesson for this song

chords

Song 2 (ver. 2)

	  		blur-song 2 
 
A musica eh toda feita em power cord 
eh necessario q se tenha um over drive ou um pedal com distorcão e um som parecido com violão  
Se quiser use o natural do cubo e distorcão do overdrive 
 A musica não eh tão complicada 
Eh so ouvir  q fika facil 
 
 introducão/ 
 
Riff  1_Sem Distorcão (2 vezes)  
      F#m        E              A               Bm      C#m  
|---------------------------------------------------------------------------| 
|---------------------------------------------------------------------------| 
|---------------------------------------------------------------------------| 
|----11-11-11-11--9-9-9--9---14-14-14--16---18-18-18--18--------| 
|----9--9--9--9---7-7-7--7---12-12-12--14---16-16-16--16--------| 
|---------------------------------------------------------------------------|| 
 
Riff 2 _Com  Distorcão(4 vezes) 
 
      F#m        E              A       Bm  C#m 
|---------------------------------------------------------------------------| 
|---------------------------------------------------------------------------| 
|---------------------------------------------------------------------------| 
|---------------------------------------------------------------------------| 
|---4-4-4--4---2-2-2--2---7-7-7--7--11-11-11----11------------------| 
|---2-2-2--2---0-0-0--0---5-5-5--7---9--9--9-----9------------------| 
 
Verco 1_Riff 1 
 
F#m		E	A  Bm  C#m 
I got my head checked 
	F#m	E	A  Bm  C#m 
By a jumbo jet 
	  F#m	E	A  Bm  C#m 
It wasn't easy 
	    F#m		E	A  Bm  C#m 
But nothing is, no 
         
Refrao_Riff 2 
 
F#m	E     A   Bm    C#m 
        When I feel heavy metal 
F#m	E	A       Bm  C#m 
	And I'm pins and I'm needles 
F#m	E      A       Bm   C#m 
        Well I lie and I'm easy     
  
Riff 3_Com Distorcão (1 Vez) 
  F#m       A           D 
|-------------------------------------------------------------------------------------------| 
|-------------------------------------------------------------------------------------------| 
|-------------------------------------------------------------------------------------------| 
|----------------------------------------7-7-7-7-7-7-7-7-7-7-7-7-7-7-7-7----| 
|---4-4-4-4-4-4-4-4--7-7-7-7-7-7-7-7-----5-5-5-5-5-5-5-5-5-5-5-5-5-5-5-5----| 
|---2-2-2-2-2-2-2-2--5-5-5-5-5-5-5-5 -----------------------------------------------| 
 
F#m			A		 D 
All of the time and I'm never sure why I need you 
Pleased to meet ya 
 
Solo 
|---------------------------------------------------------------------------| 
|---------------------------------------------------------------------------| 
|---------------------------------------------------------------------------| 
|---------------------------------------------------------------------------| 
|---4---2---4---2----7-7-7--7---11--11--11--11------------------------| 
|---2---0---2---0----5-5-5--7---9---9---9----9------------------------| 
 
 
 
verco 2_Riff 1 
	 F#m		E	A  Bm  C#m 
I got my head done 
       F#m		E	A Bm  C#m 
When I was young 
	    F#m		E	A  Bm  C#m 
It's not my problem 
	    F#m		E	A  Bm  C#m 
It's not my problem 
  
 
Refrao_Riff 2 
      
F#m	E     A   Bm    C#m 
        When I feel heavy metal 
F#m	E	A       Bm  C#m 
	And I'm pins and I'm needles 
F#m	E      A       Bm   C#m 
        Well I lie and I'm easy     
  
Riff 3_Com Distorcão (1 Vez) 
  F#m       A           D 
|-------------------------------------------------------------------------------------------| 
|-------------------------------------------------------------------------------------------| 
|-------------------------------------------------------------------------------------------| 
|----------------------------------------7-7-7-7-7-7-7-7-7-7-7-7-7-7-7-7----| 
|---4-4-4-4-4-4-4-4--7-7-7-7-7-7-7-7-----5-5-5-5-5-5-5-5-5-5-5-5-5-5-5-5----| 
|---2-2-2-2-2-2-2-2--5-5-5-5-5-5-5-5 -----------------------------------------------| 
F#m			A		 D 
All of the time and I'm never sure why I need you 
Pleased to meet ya 
 
Solo 
 
F#m	Eb	Ab  Bm  C#m 
Yeah, yeah 
Yeah, yeah 
Yeah, yeah 
Oh, yeah 
 
A versão pra guitarra do cifras ta erreda 
a cersão pra violão ta certa  mas eh foda pra quem eh iniciante tira soh com cifras pra violão 
Qualquer duvida eh so manda um e-mail 
Se vc curte heavy Metal, death metal, power metal, black metal,  punk rock, Hard core, hip hop E rock`n roll em geral  
me add no msn   [email protected] 
falow galera 

		  

See also:

tabs Ben Howard - Promise tabs Alt-J - Breezeblocks tabs Arctic Monkeys - All My Own Stunts tabs Oasis - All around the world/intro tabs Faith no More - Easy tabs Oasis - Champagne Supernova (ver. 2)
e-chords

Other versions:

tabs Blur - Song 2 tabs Blur - Song 2 (ver. 2)
auto scroll beats size up size down change color hide chords drawings
tab show chords e-chords YouTube Clip e-chords hide all tabs e-chords go to top tab

share