Blumfeld

Tausend Tränen Tief

Blumfeld

tabs

by  CARLLUZ

save to print version add songbook text version e-mail correct tuner
chordsukulelecavacokeyboardtabbassdrumsharmonicaflute Guitar Pro
close

there isn't a video lesson for this song

chords

Tausend Tränen Tief

	  		
Intro 2x  
(play with all 4 fingers) 
e|-------3-3---3--| 
B|-------3-3---3--| 
G|-------0-0---0--| 
D|------0-----1---| 
A|-----2-----3----| 
E|---3------------| 

Verse 
(all the time alternating) 
e|-------3-3---3--| 
B|-------3-3---3--| 
G|-------0-0---0--| 
D|------0-----1---| 
A|-----2-----3----| 
E|---3------------| 

Chorus 
(upper c+f together with indexfinger) 
e|---1--1--3--3-----3--3--1--1--3--3----3--3--3--| 
B|---1--1--0--0-----3--3--1--1--0--0----3--3--3--| 
G|---2--2--0--0-----0--0--2--2--0--0----0--0--0--| 
D|---0--0--0--0----1--1---0--0--0--0---1--1--0---| 
A|---x--x--2--2---3--3----x--x--0--0--3--3-------| 
E|---3--3--3--3-----------3--3--3--3-------------| 



************************************ 

| x  Dead note 

************************************ 
		  

See also:

tabs Ira! - Vitrine Viva tabs Deep Purple - Black Knight tabs Deep Purple - Demonds Eye tabs Deep Purple - Smoke on the Water (ver. 2) tabs Deep Purple - Clearly Quite Absurd tabs Ira! - Envelheço na Cidade (intro)
e-chords

Other versions:

auto scroll beats size up size down change color hide chords drawings
tab show chords e-chords YouTube Clip e-chords hide all tabs e-chords go to top tab

share