Blood Red Shoes

Tightwire

Blood Red Shoes

tabs nolevel nolevel

by  PAULLET3

save to print version add songbook text version e-mail correct tuner
chordsukulelecavacokeyboardtabbassdrumsharmonicaflute Guitar Pro
close

there isn't a video lesson for this song

chords

Tightwire

	  		

verse 1 

e|-----------------| 
B|-----------------| 
G|-----------------| 
D|-10---5----7----2|     (4x) 
A|-10---5----7----2| 
E|-8----3----5----0| 

Chorus 
Accords: C G A Em (2x) 
Post-Chorus: 
e|-0000000-7777777-0000000-7777777-12-12-12--| 
B|-------------------------------------------| 
G|-------------------------------------------| 
D|-------------------------------------------| 
A|-------------------------------------------| 
E|-------------------------------------------| 

verse 2 
e|-----------------| 
B|-----------------| 
G|-----------------| 
D|-10---5----7----2|     (4x) 
A|-10---5----7----2| 
E|-8----3----5----0| 

Pre-Chorus 
e|-----------------------------------------------------------------------| 
B|-----------------------------------------------------------------------| 
G|-2-2-2-2-2-2-2-2-2/4-4-4-4-4-4-4-4/10-10-10-10-10-10-10/9-9-9-9-9-9-9--| 
D|-----------------------------------------------------------------------| 
A|-----------------------------------------------------------------------| 
E|-----------------------------------------------------------------------| 

e|---------------------------------------------------------------------------------------------| 
B|---------------------------------------------------------------------------------------------| 
G|-2-2-2-2-2-2-2-2-2/4-4-4-4-4-4-4-4/10-10-10-10-10-10-10/9-9-9-9-9-9-9-9/7-7??7-7-7-7-7-7-7----| 
D|---------------------------------------------------------------------------------------------| 
A|---------------------------------------------------------------------------------------------| 
E|---------------------------------------------------------------------------------------------| 

Chorus 
Accords: C G A Em (2x) 
		  

Full key step upFull key step up
Half key step upHalf key step up
Half key step downHalf key step down
Full key step downFull key step down
hide glossary

See also:

tabs Bush - Bonedriven tabs Ben Howard - Oats In The Water tabs Oasis - Wonderwall (ver. 2) tabs Arctic Monkeys - Fluorescent Adolescent tabs Oasis - Champagne Supernova (ver. 2) tabs Oasis - Hello
e-chords

Other versions:

tabs Blood Red Shoes - Tightwire
auto scroll beats size up size down change color hide chords drawings
tab show chords e-chords YouTube Clip e-chords hide all tabs e-chords go to top tab

share with facebook