Blitzkid

Mr. Gore

Blitzkid

tabs nolevel nolevel

by  VICTBORGES

save to print version add songbook text version e-mail correct tuner
chordsukulelecavacokeyboardtabbassdrumsharmonicaflute Guitar Pro
close

there isn't a video lesson for this song

chords

Mr. Gore

	  		

Intro (Lead and Rhythm) 

E|---------------------------------------| x2 
B|---------------------------------------| 
G|-13~131313131313-8/510~101010-8~888888-| 
D|---------------------------------------| 
A|-11~111111111111-6/3-8~888888-6~666666-| 
E|---------------------------------------| 

E|-------------------------------------| x2 
B|-------------------------------------| 
G|-------------------10101010-8-888888-| 
D|-6-666666-6-666666-10101010-8-888888-| 
A|-6-666666-6-666666-8-888888-6-666666-| 
E|-4-444444-4-444444-------------------| 

Verse 

E|-------------------------------------| x4 
B|-------------------------------------| 
G|-------------------10101010-8-888888-| 
D|-6-666666-6-666666-10101010-8-888888-| 
A|-6-666666-6-666666-8-888888-6-666666-| 
E|-4-444444-4-444444-------------------| 

Chorus 

E|-------------------------------------| x4 
B|-------------------------------------| 
G|-6-666666-6-666666----------6-666666-| 
D|-6-666666-6-666666-6-666666-6-666666-| 
A|-4-444444-4-444444-6-666666-6-666666-| 
E|-------------------4-444444----------| 

E|-------------------------------------| x2 
B|-------------------------------------| 
G|-------------------10101010-8-888888-| 
D|-6-666666-6-666666-10101010-8-888888-| 
A|-6-666666-6-666666-8-888888-6-666666-| 
E|-4-444444-4-444444-------------------| 

Solo (Played with Verse Guitar x2) 

E|---------------------------------------| 
B|---------------------------------------| x1 
G|---------------------------------------| 
D|---------------10-11-13-11-10----------| 
A|-11~~~11~11-13----------------13/15\13-| 
E|---------------------------------------| 

E|---------------------------------------------| 
B|---------------------------------------------| x1 
G|------------------------------13-12----------| 
D|---------------10-11-13-11-10-------13-------| 
A|-11~~~11~11-13-------------------------11~~~-| 
E|---------------------------------------------| 

 
		  

See also:

tabs Guns N' Roses - Don't Cry tabs Aerosmith - Dream On tabs Guns N' Roses - Sweet Child o' mine tabs Guns N' Roses - Welcome to The Jungle tabs Rage Against The Machine - Killing In The Name (ver. 2) tabs The Doors - People Are Strange
e-chords

Other versions:

tabs Blitzkid - Mr. Gore
auto scroll beats size up size down change color hide chords drawings
tab show chords e-chords YouTube Clip e-chords hide all tabs e-chords go to top tab

share with facebook