Blitz Kids

Sometimes

Blitz Kids

tabs

by  SABRJOAO

save to print version add songbook text version e-mail correct tuner
chordsukulelecavacokeyboardtabbassdrumsharmonicaflute Guitar Pro
close

there isn't a video lesson for this song

chords

Sometimes

	  		

Intro 

E|-------------------------|------------------------|------------------------|-------------------| 
B|-------------------------|------------------------|------------------------|-------------------| 
G|-------------------------|------------------------|------------------------|-------------------| 
D|-------------------------|------------------------|------------------------|-------------------| 
A|--------9--9--------5--5-|-------7--7--4--4--5--5-|-------9--9--------5--5-|-4----4--5--4------| 
E|--7--7--------7--7-------|-5--5-------------------|-7--7--------7--7-------|-------------7--5--| 

Verse 

E|-------------------------|------------------------|------------------------|-------------------------| 
B|-------------------------|------------------------|------------------------|-------------------------| 
G|-------------------------|------------------------|------------------------|-------------------------| 
D|-------------------------|------------------------|------------------------|-------------------------| 
A|--------9--9--------5--5-|-------9--9--------5--5-|-------7--7--4--4--5--5-|-------7--7--4--4--5--5--| 
E|--7--7--------7--7-------|-7--7--------7--7-------|-5--5-------------------|-5--5--------------------| 

E|-------------------------|------------------------|------------------------|---------------------| 
B|-------------------------|------------------------|------------------------|---------------------| 
G|-------------------------|------------------------|------------------------|---------------------| 
D|--------4--4--------0--0-|-------4--4--------0--0-|------------------------|---------------------| 
A|-------------------------|------------------------|-------7--7--4--4--5--5-|-4----4--5--4--------| 
E|--3--3--------3--3-------|-3--3--------3--3-------|-5--5-------------------|---------------7--5--| 

This is played a second time, while the seconds guitar plays: 
                                                               Pre-Chorus 
E|--7--7--7--7--|--5--5--5--5--|--7--7--7--7--|--5--5--5--5--|-------------------------|---7---7---7---| 
B|--7--7--7--7--|--5--5--5--5--|--7--7--7--7--|--5--5--5--5--|--5--5--5--7--5--3--2~~--|---7---7---7---| 
G|--------------|--------------|--------------|--------------|-------------------------|---------------| 
D|--------------|--------------|--------------|--------------|-------------------------|---------------| 
A|--------------|--------------|--------------|--------------|-------------------------|---------------| 
E|--------------|--------------|--------------|--------------|-------------------------|---------------| 

Chorus 

E|-------------------------|------------------------|------------------------|-------------------------| 
B|-------------------------|------------------------|------------------------|-------------------------| 
G|--7--7--7--7--7--7--7--7-|------------------------|------------------------|-------------------------| 
D|--7--7--7--7--7--7--7--7-|-7--7--7--7--7--7--7--7-|-5--5--5--5--5--5--5--5-|-5--5--5--5--5--5--5--5--| 
A|--5--5--5--5--5--5--5--5-|-7--7--7--7--7--7--7--7-|-5--5--5--5--5--5--5--5-|-5--5--5--5--5--5--5--5--| 
E|-------------------------|-5--5--5--5--5--5--5--5-|-3--3--3--3--3--3--3--3-|-3--3--3--3--3--3--3--3--| 
		  

See also:

tabs Deep Purple - Smoke On The Water (Intro + solo 01) tabs Deep Purple - Perfect Strangers tabs Deep Purple - Smoke on the water (ver. 3) tabs Ira! - Eu Quero Sempre Mais (ver. 2) tabs Deep Purple - Fireball (ver. 2) tabs Deep Purple - Squished Bananas Dave&cammey
e-chords

Other versions:

tabs Blink 182 - Sometimes tabs Britney Spears - Sometimes tabs John Butler Trio - Sometimes tabs Pearl Jam - Sometimes tabs Blitz Kids - Sometimes tabs Deep Purple - Sometimes a Feel Like Screaming
auto scroll beats size up size down change color hide chords drawings
tab show chords e-chords YouTube Clip e-chords hide all tabs e-chords go to top tab

share with facebook