Blink 182

home > Blink 182

Wrecked Him Tab

Blink 182

Difficulty: ExpertExpert

tuner correct add songbook print version text version save to e-mail
chordsukulelecavacokeyboardtabbassdrumsharmonicsflute Guitar Pro
chords

Wrecked Him

Year: 1998 - Album: Dick Lips

  		 
TABBED BY J*M*N*E*T(Joćo Marcelo) 
 
Intro 
e|---------------------------------------------- 
B|---------------------------------------------- 
G|-----777-66-----666-77-----777-66-----666-77-- 
D|-000--------555--------777--------555--------- 
A|---------------------------------------------- 
E|---------------------------------------------- 
 
Verse 
e|------------------------- 
B|------------------------- 
G|-7777-------------------- 
D|-7777--5555--7777--5555-- 
A|-5555--5555--7777--5555-- 
E|-------3333--5555--3333-- 
 
Chorus 
e|------------------------- 
B|------------------------- 
G|-7777-------------------- 
D|-7777--2222--5555--7777-- 
A|-5555--2222--5555--7777-- 
E|-------0000--3333--5555-- 
 
Solo(!NOT REALLY SURE!) 
e|------------------------------------------------------- 
B|------------------------------------------------------- 
G|---------------------------------/12-12-11-11---------- 
D|-----------5-5-4-----7-7-7-6-6-7--------------12-12-11- 
A|-5-5-5-4-5-------5-4----------------------------------- 
E|------------------------------------------------------- 
 
-10-10-10-10-9-9-9------------------------------------------ 
-------------------8-8-8-12-12-10-10-8-8-10-10-10-9-9-10-10- 
------------------------------------------------------------ 
------------------------------------------------------------ 
------------------------------------------------------------ 
------------------------------------------------------------ 
 
-------------------------- 
-------------------------- 
-12-12-11-12-14-14-12--7-- 
-------------------------- 
-------------------------- 
-------------------------- 
 
 
_______________________________________________________ 
Contribuiēćo: Joćo Marcelo Ribeiro Costa Barreto([email protected]) 

	  

Search Paypal
auto scroll beats size up size down change color hide chords drawings
tab show chords e-chords YouTube Clip e-chords hide all tabs e-chords go to top tab