Blink 182

home > Blink 182

Wishing Well Tab

Blink 182

Difficulty: BeginnerBeginner

by tamamoreira

tuner correct add songbook print version text version save to e-mail
chordsukulelecavacokeyboardtabbassdrumsharmonicsflute Guitar Pro
chords

Wishing Well

  		

Intro:
 
Guitar 1 
e|-------------------------------------------| 
B|-------------------------------------------| 
G|-101010-9--95-555555555555555xx555555------| 
D|-x-x-x--x--xx-xxxxxxxxxxxxxxxxxxxxxxx------|\ 
A|-8-8-8--7--73-333333333333333xx333333------| \ 
E|-------------------------------------------|  \ 
                                                 x2 
Guitar 2                                        / 
e|-------------------------------------------| / 
B|-------------------------------------------|/ 
G|-101010-9--95-555555555555555xx777777------| 
D|-x-x-x--x--xx-xxxxxxxxxxxxxxxxxxxxxxx------| 
A|-8-8-8--7--73-333333333333333xx555555------| 
E|-------------------------------------------| 


Verse: (Scratching patterns change throughout verse.) 

0:10 "It's been a really long time..." 
e|-------------------------------------------| 
B|-------------------------------------------| 
G|-101010-9--95-555555555555555xx555555------| 
D|-x-x-x--x--xx-xxxxxxxxxxxxxxxxxxxxxxx------| 
A|-8-8-8--7--73-333333333333333xx333333------| 
E|-------------------------------------------| x6 


Pre-Chorus: 0:39 "La da dut dut, la da dut dah..." 

e|-------------------------------------------| 
B|-------------------------------------------| 
G|-8--------9---------5--------7-------------| 
D|-9--------9---------5--------7-------------| 
A|-6--------7---------3--------5-------------| 
E|-------------------------------------------| 


Chorus: 0:50 
"I went to a wishing well, it sunk to the ocean floor..." 
Guitar 1 
e|--------------------------------------------------------------------| 
B|--------------------------------------------------------------------| 
G|--5-----------------------------------------------------------------| 
D|--5--------------5---------------7---------------3------------------| 
A|--3--------------5---------------7---------------3------------------| 
E|-----------------3---------------5---------------1------------------| 
Guitar 2 
e|--------------------------------------------------------------------| 
B|--------------------------------------------------------------------| 
G|-5555xx5777xx77xx5555xx5777xx77xx5555xx5777xx77xx5555xx5777xx77xx---| 
D|-xxxxxxxxxxxxxxxxxxxxxxxxxxxxxxxxxxxxxxxxxxxxxxxxxxxxxxxxxxxxxxxx---| 
A|-3333xx3555xx55xx3333xx3555xx55xx3333xx3555xx55xx3333xx3555xx55xx---| 
E|--------------------------------------------------------------------| 

Repeat Intro 

(Guitar DOESN'T PLAY VERSE 2) 

Repeat Pre-Chorus 

Repeat Chorus 

Bridge: 2:09 

e|----------------------------------------------------------------------| 
B|----------------------------------------------------------------------| 
G|-5--------------------------------------------------------------------| 
D|-x---continuously plays, slowly crescendos.---------------------------| 
A|-3--------------------------------------------------------------------| 
E|----------------------------------------------------------------------| 

Repeat Pre-Chorus 

Repeat Chorus x2 

Outro: 

e|-------------------------------| 
B|-------------------------------| 
G|-1010109-95-5-5-55xx5555-------| 
D|-x-x-x-x-xx-x-x-xxxxxxxx-------| 
A|-8-8-8-7-73-3-3-33xx3333-------| 
E|-------------------------------| 
	  

Search Paypal
auto scroll beats size up size down change color hide chords drawings
tab show chords e-chords YouTube Clip e-chords hide all tabs e-chords go to top tab