Blink 182

home > Blink 182

Violence Tab

Blink 182

Difficulty: EasyEasy

tuner correct add songbook print version text version save to e-mail
chordsukulelecavacokeyboardtabbassdrummharmonicsflute Guitar Pro
chords

Violence

Year: 2003 - Album: Blink 182

  		Intro:
|---------------------------------------
|---------------------------------------
|--4-4-4-4-4-4-4-4-4-4-4-4-4------------
|--x-x-x-x-x-x-x-x-x-x-x-x-x------------VARIAS VEZES
|--2-2-2-2-2-2-2-2-2-2-2-2-2------------
|---------------------------------------

ESTA PARTE FAZ ENQUANTO TA ROLANDO A PARTE D CIMA COM OUTRO EFEITO NA GUITARRA

|---------------------------
|---------------------------
|--4-4-4-4-4----------------
|--4-4-4-4-4----------------2X
|--2-2-2-2-2----------------
|---------------------------

|---------------------------------------------------
|---------------------------------------------------
|-444444444444-666666666666-------------------------
|-444444444444-666666666666-666666666666-88888888888
|-222222222222-444444444444-666666666666-88888888888
|---------------------------444444444444-66666666666

AÍ VAI A PARTE DO BAIXO JUNTO COM A LETRA E ENTRA O REFRÃO:

|---------------------------------------------------
|---------------------------------------------------
|-444444444444-666666666666-------------------------
|-444444444444-666666666666-666666666666-88888888888
|-222222222222-444444444444-666666666666-88888888888
|---------------------------444444444444-66666666666

AÍ ACABA O REFRÃO E ENTRA ESSA PARTE:

|-------------------------------------------------
|-------------------------------------------------
|-------------------------------------------------
|-------------------------------------------------
|----6----6---6-----4----4--4----2----2--2--------
|-4-4--4-4---4---2-2--2-2--2--0-0--0-0--0---------

|----------------
|----------------
|----------------
|----------------ESSAS DUAS PARTES 5X
|----4---4--4----
|-2-2--2-2-2-----

E ENTRA O REFRÃO DENOVO:

|---------------------------------------------------
|---------------------------------------------------
|-444444444444-666666666666-------------------------
|-444444444444-666666666666-666666666666-88888888888
|-222222222222-444444444444-666666666666-88888888888
|---------------------------444444444444-66666666666

AÍ ESSE É O FINAL

|---------------------------------------------------
|---------------------------------------------------
|---------------------------------------------------
|-999999999999-88888888888-77777777777-666666666666-
|-XXXXXXXXXXXX-XXXXXXXXXXX-XXXXXXXXXXX-XXXXXXXXXXXX-
|-777777777777-66666666666-55555555555-444444444444-

|---------------------------
|---------------------------
|---------------------------
|-5555-4444-3333-2222-------
|-XXXX-XXXX-XXXX-XXXX-------
|-3333-2222-1111-0000-------


_______________________________________________________
Contribuição: Renan Oliveira Paradella([email protected])
	  

Search Paypal
auto scroll beats size up size down change color hide chords drawings
tab show chords e-chords YouTube Clip e-chords hide all tabs e-chords go to top tab