Blink 182

home > Blink 182

Unreleased (acoustic) Tab

Blink 182

Difficulty: nolevelnolevel

by carlluz

tuner correct add songbook print version text version save to e-mail
chordsukulelecavacokeyboardtabbassdrumsharmonicsflute Guitar Pro
chords

Unreleased (acoustic)

  		                        


Track 1 
     E  E  E  E  E  E  E  E     E  E  E  E  E  E  E  E    
E||--------------------------|--------------------------| 
B||--------------------------|--------------------------| 
G||--------------------------|--------------------------| 
D||-----------4--------4-----|-----------2--------2-----| 
A||--2--2--2-----2--2-----2--|--0--0--0-----0--0-----0--| 
E||--------------------------|--------------------------| 


  E  E  E  E  E  E  E  E     E  E  E  E  E  E  E  E    
--------------------------|--------------------------| 
--------------------------|--------------------------| 
--------------------------|--------------------------| 
--------------------------|-----2-----2-----2-----2--| 
-----------5--------5-----|--0-----0-----0-----0-----| 
--3--3--3-----3--3-----3--|--------------------------| 


  E  E  E  E  E  E  E  E     E  E  E  E  E  E  E     E  E  E  E  E  E  E  E    
--------------------------|-----------------------|--------------------------| 
--------------------------|-----------------------|--------------------------| 
--------------------------|-----------------------|--------------------------| 
-----------7--------4-----|-----5-----5-----4--5--|-----------4--------2-----| 
--5--5--5-----5--5-----5--|--5-----5-----5--------|--------------------------| 
--------------------------|-----------------------|--3--3--3-----3--3-----3--| 


  E  E  E  E  E           
-----------------|-----|| 
-----------------|-----|| 
-----------------|-----|| 
--4-----5-----0--|-----|| 
-----------------|-----|| 
-----3-----3-----|-----||  
	  

Search Paypal
auto scroll beats size up size down change color hide chords drawings
tab show chords e-chords YouTube Clip e-chords hide all tabs e-chords go to top tab