Blink 182

home > Blink 182

Strings Tab

Blink 182

Difficulty: nolevelnolevel

tuner correct add songbook print version text version save to e-mail
chordsukulelecavacokeyboardtabbassdrummharmonicsflute Guitar Pro
chords

Strings

Year: 1994 - Album: Cheshire Cat

(Delonge / Hoppus)

  		 
           Intro		     Riff:A 
e|----------------------------------|----------------------------------------| 
B|----------------------------------|----------------------------------------| 
G|°-------5-5-5-5---------7-7-7-7-°-|-4--4--4-7-7-7--5--4--------------------| 
D|°-------5-5-5-5-5-5-5-5-7-7-7-7-°-|----------------------7--7--------------| 
A|--2-2-2-3-3-3-3-5-5-5-5-5-5-5-5---|----------------------------------------| 
E|--0-0-0---------3-3-3-3-----------|----------------------------------------| 
 
			p.o. 
e|---------------------------------------------------------------------------| 
B|---------------------------------------------------------------------------| 
G|-----4-5-7-5-4------4-5^4----4--4--4-7-7-7--5--4---------------------------| 
D|-5-7-----------7-7--------5-----------------------7--7--5--5--5-5-5--------| 
A|---------------------------------------------------------------------------| 
E|---------------------------------------------------------------------------| 
 
		|------------3 times----------------| 
e|--------------|-----------------------------------|------------------------| 
B|--------------|-----------------------------------|-----------------8-8-8-8| 
G|-5^4------4---|°---------5-5-5-5---------7-7-7-7-°|-9-x-x-x-5-x-x-x-7-7-7-7| 
D|-----7-7----5-|°-2-2-2-2-5-5-5-5-5-5-5-5-7-7-7-7-°|-9-x-x-x-5-x-x-x--------| 
A|--------------|--2-2-2-2-3-3-3-3-5-5-5-5-5-5-5-5--|-7-x-x-x-3-x-x-x--------| 
E|--------------|--0-0-0-0---------3-3-3-3----------|------------------------| 
 
e|---------------------------------------------------------------------------| 
B|---------------------------------------------------------------------------| 
G|-7-7-7-7--5-5-5-5-5-5-5-5---------------------------------5-5-5-5-5-5-5-5--| 
D|-7-7-7-7--5-5-5-5-5-5-5-5-5-5-5-5-5-5-5-5-2-2-2-2-2-2-2-2-5-5-5-5-5-5-5-5--| 
A|-5-5-5-5--3-3-3-3-3-3-3-3-5-5-5-5-5-5-5-5-2-2-2-2-2-2-2-2------------------| 
E|--------------------------3-3-3-3-3-3-3-3-0-0-0-0-0-0-0-0------------------| 
 
e|---------------------------------------------------------------------------| 
B|---------------------------------------------------------------------------| 
G|-5-5-5-5-5-5-5-5---------------------------------5--5--5-5-5-5-------------| 
D|-5-5-5-5-5-5-5-5-5-5-5-5-5-5-5-5-2-2-2-2-2-2-2-2-5--5--5-5-5-5-------------| 
A|-----------------5-5-5-5-5-5-5-5-2-2-2-2-2-2-2-2-3--3--3-3-3-3-------------| 
E|-----------------3-3-3-3-3-3-3-3-0-0-0-0-0-0-0-0---------------------------| 
 
  start again at >>Riff:A<< and repeat the whole thing 
 
  outro 
e|-------------------------------------------------------------| 
B|-------------------------------------------------------------| 
G|---------5-5-5-5---------7-7-7-7---------5-5-5-5---------7---| 
D|-2-2-2-2-5-5-5-5-5-5-5-5-7-7-7-7-2-2-2-2-5-5-5-5-5-5-5-5-7---| 
A|-2-2-2-2-3-3-3-3-5-5-5-5-5-5-5-5-2-2-2-2-3-3-3-3-5-5-5-5-5---| 
E|-0-0-0-0---------3-3-3-3---------0-0-0-0---------3-3-3-3-----| 
 
 
_______________________________________________________ 
Contribuição: Juliano Viegas Taveira([email protected]) 

	  

Search Paypal
auto scroll beats size up size down change color hide chords drawings
tab show chords e-chords YouTube Clip e-chords hide all tabs e-chords go to top tab