Blink 182

home > Blink 182

Shut Up Tab

Blink 182

Difficulty: nolevelnolevel

by vejota

tuner correct add songbook print version text version save to e-mail
chordsukulelecavacokeyboardtabbassdrummharmonicsflute Guitar Pro
chords

Shut Up

Year: 2001 - Album: Take off Your Pants and Jacket

  		InTrO:             
D|-77777777---|       

Riff 1                          X4
G|----9-------9-------9-------9---
D|--7---7---7---7---7---7---7---7-
A|-0------0-------4-------5-------

Verso 1
  A
|-7-|
|-7-| Essa parte é só com o baixo.
|-5-|

Riff 1  x3

Verso 2   Que nem o primeiro.

Refrão
D      A      A*        x2       B      D       x2
|---|  |---|  |----|             |---|  |---|
|---|  |---|  |----|             |---|  |---|
|-7-|  |---|  |-14-|             |-4-|  |-7-|
|-7-|  |-7-|  |-14-|             |-4-|  |-7-|
|-5-|  |-7-|  |-12-|             |-2-|  |-5-|
|---|  |-5-|  |----|             |---|  |---|

Verso 3
A      C#?    D
|---|  |---|  |---|
|---|  |---|  |---|
|---|  |-6-|  |-7-|
|-7-|  |-7-|  |-7-|
|-7-|  |-4-|  |-5-|
|-5-|  |---|  |---|

Refrão            

Riff 2                            x6
|---------------------------------------|
|---------------------------------------|
|-9-9-9-9-9-9-9-9--11-11-11-11--7-7-7-7-|
|-x-x-x-x-x-x-x-x---x--x--x--x--x-x-x-x-|
|-7-7-7-7-7-7-7-7---9--9--9--9--5-5-5-5-|
|---------------------------------------|

Riff 3    x2
|-------------------------|
|-------------------------|
|-14--13--11---18--16--14-|
|--x---x---x----x---x---x-|
|-12--11---9---16--14--12-|
|-------------------------|

Refrão

Riff 1   x4

Termina com A.

	  

Search Paypal
auto scroll beats size up size down change color hide chords drawings
tab show chords e-chords YouTube Clip e-chords hide all tabs e-chords go to top tab