Blink 182

home > Blink 182

Mutt Tab

Blink 182

Difficulty: ExpertExpert

by vejota

tuner correct add songbook print version text version save to e-mail
chordsukulelecavacokeyboardtabbassdrummharmonicsflute Guitar Pro
chords

Mutt

Year: 1999 - Album: Enema of the State

(Delonge / Hoppus)

  		InTrO: 
G|---------|------2--|            
D|------2--|--0-0----|             
A|--0-0----|---------|             
    (8X)      (8X)

B|-----2----------2----------2--|
G|--2----------2----------2-----|
D|----------2----------2--------|

Primeiro Verso Riff

B|------------------------------------------------------2---------2--
G|-----------2----------2---------2/4-------2/4----------------------
D|-----------------------------------------------0--0------0--0------
A|----0--0-------0--0------0--0------0--0----------------------------

 
B|---------------------------------------------7-777777-5-555555----------- 
G|---------4/2---------4/2---------------------6-666666-4-444444-------7~~- 
D|--0--0--------0--0--------2-222222-2-222222--4-444444-2-222222-------7~~- 
A|--------------------------0-000000-0-000000--------------------------5~~- 

 A                            B           D
|-----------------------------------------------------|
|-----------------------------------------------------|
|--0--0-0-7/9/7--0--0-0-7/9/7--2-22-5-2--4/555-5/777--|
|-----------------------------------------------------|

Break:
D|--7-7----9-9---7-7---9-9-----
A|--7-7----9-9---5-5---7-7-----
E|--5-5----7-7-----------------

Vejota p/ Adriane B. C., vc sabe + eu 100pre repito: Te amuuuu!!!!!


	  

Search Paypal
auto scroll beats size up size down change color hide chords drawings
tab show chords e-chords YouTube Clip e-chords hide all tabs e-chords go to top tab