Blink 182

home > Blink 182

Mother's day Tab

Blink 182

Difficulty: ExpertExpert

tuner correct add songbook print version text version save to e-mail
chordsukulelecavacokeyboardtabbassdrumsharmonicsflute Guitar Pro
chords

Mother's day

  		(Verse bit, "fuckin and suckin and touchin" palm mute this first bit obviously...) 

e|--------------------------------------------------------------------------| 
B|--------------------------------------------------------------------------| 
G|-9-9-9-9-9--4-4-4-4--4--3-------------------------------------------------| 
D|-9-9-9-9-9--4-4-4-4--4--3--(repeat..a few times, you'll work it out)------| 
A|-7-7-7-7-7--3-3-3-3--2--1-------------------------------------------------| 
E|--------------------------------------------------------------------------| 

(chorus bit, "its mothers dayy hey hey heeey") 
e|--------------------------------------------------------------------------| 
B|--------------------------------------------------------------------------| 
G|-9-9-9--5-5-5-----------7-7-7---------------------------------------------| 
D|-9-9-9--5-5-5--5-5-5--7-7-7-----------------------------------------------| 
A|-7-7-7--3-3-3--5-5-5--5-5-5-----------------------------------------------| 
E|------------------3-3-3---------------------------------------------------| 

the little riff thingy in the chorus is something like this... 
e|--------------------------------------------------------------------------| 
B|--------------------------------------------------------------------------| 
G|--9---9---9-----5---5--5--------------------7---7---7---------------------| 
D|----9---9---9-----5---5--5----5---5---5------7---7---7--------------------| 
A|--------------------------------5---5---5---------------------------------| 
E|--------------------------------------------------------------------------| 

well thats it!! (ORDER) VERSE CHORUS VERSE CHORUS (duh)

_______________________________________________________
Contribuição: Alexandre Tadeu Lazaro([email protected])
	  

Search Paypal
auto scroll beats size up size down change color hide chords drawings
tab show chords e-chords YouTube Clip e-chords hide all tabs e-chords go to top tab