Blink 182

home > Blink 182

Man Overboard Tab

Blink 182

Difficulty: IntermediateIntermediate

by saulo182

tuner correct add songbook print version text version save to e-mail
chordsukulelecavacokeyboardtabbassdrummharmonicsflute Guitar Pro
chords

Man Overboard

Year: 2000 - Album: Greatest Hits

(Blink 182)

  		INTRO: Bass 
 G------------------------------------------------------------------ 
D-----0-0-------------0-0--------------0-0------------------------- 
A---------3-3-2-2---------3-3-2-2----------3-3-2-2-3-3-2-2-3-3-2-2- 
E-3-3-------------3-3--------------3-3-----------------------------2x 

So sorry it's over... 
e------------------------------------ 
B------------------------------------ 
G-------------------5555555555555555- 
D-55555555-77777777-5555555555555555- 
A-55555555-77777777-3333333333333333- 
E-33333333-55555555------------------3x 

Time keeps moving... 
e------------------------------ 
B------------------------------ 
G-------------------55555555-7- 
D-55555555-77777777-55555555-7- 
A-55555555-77777777-33333333-5- 
E-33333333-55555555------------1x* 
*-Deixa o som do D5(x577xx) rolar! 

Riff 1... 
e--------------------------------------------- 
B--------------------------------------------- 
G--------------------------------------------- 
D--------------------------------------------- 
A-----2h3p2--0-2h3p2-0-------2h3p2--0-2h3p2-0- 
E-3-3-------------------0-0-------------------2x 

Riff 2... 
e------------------------- 
B------------------------- 
G------------------------- 
D-5-5-----0-----0-0h2p0--- 
A-----2h3---------------3- 
E-------------------------4x 

Let's take some time... 
e------------------------------------ 
B------------------------------------ 
G---------------------------55555555- 
D-5555555555555555-22222222-55555555- 
A-5555555555555555-22222222-33333333- 
E-3333333333333333-00000000----------2x* 
*-Toque fazendo palm mute! 

You can only lean... 
e------------------- 
B------------------- 
G------777------555- 
D--555-777--222-555- 
A--555-555--222-333- 
E--333------000-----2x 

Riff 1... 
e--------------------------------------------- 
B--------------------------------------------- 
G--------------------------------------------- 
D--------------------------------------------- 
A-----2h3p2--0-2h3p2-0-------2h3p2--0-2h3p2-0- 
E-3-3-------------------0-0-------------------2x 

I remember shots... 
e------------------------------------ 
B------------------------------------ 
G---------------------------55555555- 
D-5555555555555555-22222222-55555555- 
A-5555555555555555-22222222-33333333- 
E-3333333333333333-00000000----------2x* 
*-Toque fazendo palm mute 

You can only lean... 
e------------------- 
B------------------- 
G------777------555- 
D--555-777--222-555- 
A--555-555--222-333- 
E--333------000-----2x 

So sorry it's over... 
e------------------- 
B------------------- 
G-----------------5- 
D-5/-----/7-------5- 
A-5/slide/7-------3- 
E-3/-----/5---------4x* 
*-Deixe o som de todas as notas rolar! 

Riff 1... 
e--------------------------------------------- 
B--------------------------------------------- 
G--------------------------------------------- 
D--------------------------------------------- 
A-----2h3p2--0-2h3p2-0-------2h3p2--0-2h3p2-0- 
E-3-3-------------------0-0-------------------2x 

Riff 2... 
e------------------------- 
B------------------------- 
G------------------------- 
D-5-5-----0-----0-0h2p0--- 
A-----2h3---------------3- 
E-------------------------4x 

Man on a mission can't... 
e----------------------------------- 
B----------------------------------- 
G------------------5555555555555555- 
D-5555555555555555-5555555555555555- 
A-5555555555555555-3333333333333333- 
E-3333333333333333------------------ 

Insider information... 
e------------------------------------ 
B------------------------------------ 
G-------------------5555555555555555- 
D-55555555-77777777-5555555555555555- 
A-55555555-77777777-3333333333333333- 
E-33333333-55555555------------------ 

Loss of a good friend best... 
e----------------------------------- 
B----------------------------------- 
G------------------5555555555555555- 
D-5555555555555555-5555555555555555- 
A-5555555555555555-3333333333333333- 
E-3333333333333333------------------ 

Tight lipped procrastination... 
e----------------------------------------- 
B----------------------------------------- 
G-------------------55555555-77777777----- 
D-55555555-77777777-55555555-77777777---5- 
A-55555555-77777777-33333333-55555555---5- 
E 33333333-55555555---------------------3- 
*-Deixa o som do G5(355xxx) rolar! 

Obs.: h-hammer on 
      p-pull off 

	  

Search Paypal
auto scroll beats size up size down change color hide chords drawings
tab show chords e-chords YouTube Clip e-chords hide all tabs e-chords go to top tab