Blink 182

home > Blink 182

Here?s Your Letter Tab

Blink 182

Difficulty: BeginnerBeginner

tuner correct add songbook print version text version save to e-mail
chordsukulelecavacokeyboardtabbassdrumsharmonicsflute Guitar Pro
chords

Here?s Your Letter

  		 
Intro: 
e|--------------------------------------------------------------------------------------- 
B|--------------------------------------------------------------------------------------- 
G|--------------------------------------------------------------------------------------- 
D|----------------------------7-7-7-7-7-7-7-7-------------------------------------------- 
A|---4-4-4-4-4-4-4-4------5-5-5-5-5-5-5-5-------7-7-7-7-7-7-7-7------9-9-9-9-9-9-9-9----- 
E|---2-2-2-2-2-2-2-2--------------------------------5-5-5-5-5-5-5-5------7-7-7-7-7-7-7-7- 
 
e|------------------------------------------------------------------------------ 
B|------------------------------------------------------------------------------ 
G|----------------------------7-7-7-7-7-7-7-7----------------------------------- 
D|---4-4-4-4-4-4-4-4------5-5-5-5-5-5-5-5-------7-7-7-7-7-7-7-7-7-7-7-7-7-7----- 
A|---2-2-2-2-2-2-2-2--------------------------------5-5-5-5-5-5-5-5-5-5-5-5-5-5- 
E|------------------------------------------------------------------------------ 
  
Verso: 
Só o ?bass?      (1x) 
G|------------------------------------------------------------------------------ 
D|------------------------------------------------------------------------------ 
A|-----------------------5-5-5-5-5-5-5-5---------------------------------------- 
E|---2-2-2-2-2---2----------------------------5-5-5-5-5---5-----7-7-7-7-7-7-7-7- 
 
G|----------------------------------------------------------------------- 
D|----------------------------------------------------------------------- 
A|-----------------------5-5-5-5-5-5-5-5--------------------------------- 
E|---2-2-2-2-2---2---------------------------5-5-5-5-5-5-5-5-5-5-5-5-5-5- 
 
    Ai entra a guitarra...(abafada)... 
e|---------------------------------------------------------------------------- 
B|---------------------------------------------------------------------------- 
G|---------------------------------------------------------------------------- 
D|-------------------------7-7-7-7-7-7-7-7------------------------------------ 
A|---4-4-4-4-4-4-4-4---5-5-5-5-5-5-5-5---7-7-7-7-7-7-7-7---9-9-9-9-9-9-9-9--- 
E|---2-2-2-2-2-2-2-2-------------------------5-5-5-5-5-5-5-5---7-7-7-7-7-7-7-7 
         
e|---------------------------------------------- 
B|---------------------------------------------- 
G|------------------------7-7-7-7-7-7-7-7------- 
D|------------------------5-5-5-5-5-5-5-5------- 
A|--4-4-4-4-4-4-4-4-------------------------7--- 
E|--2-2-2-2-2-2-2-2-------------------------5--- 
                                                  \__deixe soar... 
 
 
 
refrão:     (2x) 
e|--------------------------------------------------------------------------- 
B|--------------------------------------------------------------------------- 
G|-----------------------------------------------7-7-7-7-7-7-7-7-7-7-7-7-7-7- 
D|---2-2-2------------------------------------------------------------------- 
A|---0-0-0--2-2-2---4-4-4---7-7-7-7-7-----5-5-5-5-5-5-5-5-5-5-5-5-5-5-- 
E|------------0-0-0---2-2-2---5-5-5-5-5-------------------------------------- 
 
Intro: ....... 
 
Verso:........ 
 
Refrão:....  (4x) 
 
Interlúdio: 
       (2x) 
e|------------------------------------------------------------- 
B|------------------------------------------------------------- 
G|------------------------------------------------------------- 
D|---7-7-7-7-7-7-7-7-7-7-7-7-7-7---7-7-7-7-7-7-7-7-7-7-7-7-7-7- 
A|---4-4-4-4-4-4-4-4-4-4-4-4-4-4---5-5-5-5-5-5-5-5-5-5-5-5-5-5- 
E|------------------------------------------------------------- 
 
 
e|--------------------------------------------- 
B|--------------------------------------------- 
G|-----------------(4)------------------------- 
D|----(7)---------(x)-------------(7)---------- 
A|----(x)---------(2)-------------(5)---------- 
E|----(5)------------------------------------ 
            \__14x        \__14x           \__vááárias vezes 
 
refrão:    (4x) 
 
final........intro: 
 
valeu pessoal, espero melhorar um pouco mais essa música.... 
...eu ainda naum tenhu certeza de tudo eu sei que ainda tem ... 
...algumas coisas eskisitas ai....hehehehe...mais kem kise ... 
...ajuda podi muda as ?parada? ai...hehehehe.....falow ! ! ! 
 
 
_______________________________________________________ 
Contribuição: Daniel Oliveira Ferrari([email protected]) 

	  

Search Paypal
auto scroll beats size up size down change color hide chords drawings
tab show chords e-chords YouTube Clip e-chords hide all tabs e-chords go to top tab