Blink 182

home > Blink 182

Good Times Tab

Blink 182

Difficulty: nolevelnolevel

tuner correct add songbook print version text version save to e-mail
chordsukulelecavacokeyboardtabbassdrumsharmonicsflute Guitar Pro
chords

Good Times

  		 
Intro 
Distortion 
e|---------------------------------------------------------------------------| 
B|---------------------------------------------------------------------------| 
G|-3-------------------------------------------------------------------------| 
D|-3-------------------------------------------------------------------------| 
A|-1-------------------------------------------------------------------------| 
E|---------------------------------------------------------------------------| 
   Good Times 
 
e|---------------------------------------------------------------------------| 
B|---------------------------------------------------------------------------| 
G|-5-------------------------------------------------------------------------| 
D|-5-------------------------------------------------------------------------| 
A|-3-------------------------------------------------------------------------| 
E|---------------------------------------------------------------------------| 
   Good Times 
 
e|---------------------------------------------------------------------------| 
B|---------------------------------------------------------------------------| 
G|---------------------------------------------------------------------------| 
D|-3-------------------------------------------------------------------------| 
A|-3-------------------------------------------------------------------------| 
E|-1-------------------------------------------------------------------------| 
   Good Times 
 
e|---------------------------------------------------------------------------| 
B|---------------------------------------------------------------------------| 
G|-3-3-----------------------------------------------------------------------| 
D|-3-3-----------------------------------------------------------------------| 
A|-1-1-----------------------------------------------------------------------| 
E|---------------------------------------------------------------------------| 
   oh baby, good times 
 
Guitar Part 
Distortion 
e|--------------------------------------------------------------------------------------| 
|---------------------------------------------------------------------------------------| 
G|--3-3-3-3-3-3-3-3-3-3--5-5-5-5-5-5-5-5-5-5-----------------------3-3-3-X-X-3-3-3-X-X--| 
D|--3-3-3-3-3-3-3-3-3-3--5-5-5-5-5-5-5-5-5-5--3-3-3-3-3-3-3-3-3-3--3-3-3-X-X-3-3-3-X-X--| 
A|--1-1-1-1-1-1-1-1-1-1--3-3-3-3-3-3-3-3-3-3--3-3-3-3-3-3-3-3-3-3--1-1-1-X-X-1-1-1-X-X--| 
E|--------------------------------------------1-1-1-1-1-1-1-1-1-1-----------------------| 
 
e|---------------------------------4----------------------------------| 
B|------------------------------------4-------------------------------| 
G|--8--8-8-8--8--8-8-8--5--5-5-5--------------------------------------| 
D|--8--8-8-8--8--8-8-8--5--5-5-5--------------------------------------| 
A|--6--6-6-6--5--5-5-5--3--3-3-3--------------------------------------| 
E|--------------------------------------------------------------------| 
 
e|--------------------------------------------------------------------------| 
B|--------------------------------------------------------------------------| 
G|--8-8--5-5-5--8-8--5-5-5--8-8--5-5-5--8-8--5-5-5--------------------------| 
D|--8-8--5-5-5--8-8--5-5-5--8-8--5-5-5--8-8--5-5-5--------------------------| 
A|--6-6--3-3-3--6-6--3-3-3--6-6--3-3-3--6-6--3-3-3--------------------------| 
E|--------------------------------------------------------------------------| 
 
e|---------------------------------------------------------------------------| 
B|---------------------------------------------------------------------------| 
G|--8-8--5-5-5-5-5-------------8---------------------------------------------| 
D|--8-8--5-5-5-5-5--6-6-6-6-6--8---------------------------------------------| 
A|--6-6--3-3-3-3-3--6-6-6-6-6--6---------------------------------------------| 
E|------------------4-4-4-4-4------------------------------------------------|                                  Scrap pick down string 
 
Verse 
Distortion 
e|---------------------------------------------------------------------------| 
B|---------------------------------------------------------------------------| 
G|-3-3-3-3-3-3-3-3-3-3-3-3-3-3-3-3-3-3-3-------------------------------------| 
D|-3-3-3-3-3-3-3-3-3-3-3-3-3-3-3-3-3-3-3-------------------------------------| 
A|-1-1-1-1-1-1-1-1-1-1-1-1-1-1-1-1-1-1-1-------------------------------------| 
E|---------------------------------------------------------------------------| 
   Good Times 
              any time you meet a payment 
e|---------------------------------------------------------------------------| 
B|---------------------------------------------------------------------------| 
G|-5-5-5-5-5-5-5-5-5-5-5-5-5-5-5-5-5-----------------------------------------| 
D|-5-5-5-5-5-5-5-5-5-5-5-5-5-5-5-5-5-----------------------------------------| 
A|-3-3-3-3-3-3-3-3-3-3-3-3-3-3-3-3-3-----------------------------------------| 
E|---------------------------------------------------------------------------| 
   Good Times 
              any time you feel free 
 
e|---------------------------------------------------------------------------| 
B|---------------------------------------------------------------------------| 
G|---------------------------------------------------------------------------| 
D|-3-3-3-3-3-3-3-3-3-3-3-3-3-3-3-3-3-3-3-3-3---------------------------------| 
A|-3-3-3-3-3-3-3-3-3-3-3-3-3-3-3-3-3-3-3-3-3---------------------------------| 
E|-1-1-1-1-1-1-1-1-1-1-1-1-1-1-1-1-1-1-1-1-1---------------------------------| 
   Good Times 
              any time you're out from under 
e|---------------------------------------------------------------------------| 
B|---------------------------------------------------------------------------| 
G|-3-3-X-X-X-X-3-3-3-3-3-3-X-X-X-X-3-3-3-3-----------------------------------| 
D|-3-3-X-X-X-X-3-3-3-3-3-3-X-X-X-X-3-3-3-3-----------------------------------| 
A|-1-1-X-X-X-X-1-1-1-1-1-1-X-X-X-X-1-1-1-1-----------------------------------| 
E|---------------------------------------------------------------------------| 
   Not getting hassled, not getting hustled 
 
e|--------------------------------------------------------------------------| 
B|--------------------------------------------------------------------------| 
G|--8--8-8-8-8-8-8-8-8--8--8-8-8--------------------------------------------| 
D|--8--8-8-8-8-8-8-8-8--8--8-8-8--------------------------------------------| 
A|--6--6-6-6-6-6-6-6-6--5--5-5-5--------------------------------------------| 
E|--------------------------------------------------------------------------| 
   keeping' your head above water, 
 
e|------------------------4---------------------------------------------------| 
B|--------------------------4-------------------------------------------------| 
G|-5-5--5-5-5-5-5-5-5-5-------------------------------------------------------| 
D|-5-5--5-5-5-5-5-5-5-5-------------------------------------------------------| 
A|-3-3--3-3-3-3-3-3-3-3-------------------------------------------------------| 
E|----------------------------------------------------------------------------| 
   making a wave when you can 
 
e|---------------------------------------------------------------------------| 
B|---------------------------------------------------------------------------| 
G|-8--8--8-8-8-8--5-5-5-5-5-5------------------------------------------------| 
D|-8--8--8-8-8-8--5-5-5-5-5-5------------------------------------------------| 
A|-6--6--6-6-6-6--3-3-3-3-3-3------------------------------------------------| 
E|---------------------------------------------------------------------------| 
   Tempory layoffs. (Good Times) 
e|---------------------------------------------------------------------------| 
B|---------------------------------------------------------------------------| 
G|-8--8--8-8-8-8-8-8--5-5-5-5-5-5-5-5-5--------------------------------------| 
D|-8--8--8-8-8-8-8-8--5-5-5-5-5-5-5-5-5--------------------------------------| 
A|-6--6--6-6-6-6-6-6--3-3-3-3-3-3-3-3-3--------------------------------------| 
E|---------------------------------------------------------------------------| 
   Easy credit rip offs. (Nipples Little) 
e|---------------------------------------------------------------------------| 
B|---------------------------------------------------------------------------| 
G|-8--8--8-8-8-8-8-8-8-8-8--5-5-5-5-5-5--------------------------------------| 
D|-8--8--8-8-8-8-8-8-8-8-8--5-5-5-5-5-5--------------------------------------| 
A|-6--6--6-6-6-6-6-6-6-6-6--3-3-3-3-3-3--------------------------------------| 
E|---------------------------------------------------------------------------| 
   Scratchin' and surviving. (Good Time) 
e|---------------------------------------------------------------------------| 
B|---------------------------------------------------------------------------| 
G|-8--8--8-8-8-8-8-8-8-8--5-5-5-5-5-5----------------------------------------| 
D|-8--8--8-8-8-8-8-8-8-8--5-5-5-5-5-5----------------------------------------| 
A|-6--6--6-6-6-6-6-6-6-6--3-3-3-3-3-3----------------------------------------| 
E|---------------------------------------------------------------------------| 
   Hangin in a chow line. (Good Times) 
e|---------------------------------------------------------------------------| 
B|---------------------------------------------------------------------------| 
G|-8--8--8-8-8-8-8-8--5-5-5-5-5-----------8-8-8-8-8--8-----------------------| 
D|-8--8--8-8-8-8-8-8--5-5-5-5-5--6-6-6-6--8-8-8-8-8--8-----------------------| 
A|-6--6--6-6-6-6-6-6--3-3-3-3-3--6-6-6-6--6-6-6-6-6--6-----------------------| 
E|-------------------------------4-4-4-4-------------------------------------| 
   Ain't we lucky we  got 'em___________  (Good Times) 
 
=============================================================================== 

	  

Search Paypal
auto scroll beats size up size down change color hide chords drawings
tab show chords e-chords YouTube Clip e-chords hide all tabs e-chords go to top tab