Blink 182

home > Blink 182

Ghost On The Dance Floor Tab

Blink 182

Difficulty: nolevelnolevel

by sabrjoao

tuner correct add songbook print version text version save to e-mail
chordsukulelecavacokeyboardtabbassdrumsharmonicsflute Guitar Pro
chords

Ghost On The Dance Floor

  		
Intro: 

e|-------------------------------| 
B|-------------------------------| 
G|-------------------------------| 
D|--9-9-9-9-9-9-9-9-9------------| 
A|-------------------------------| 
E|--9-9-7-7-7-7-7-7-7------------| 


Verse 1: 

e|----------------------------------------------| 
B|----------------------------------------------| 
G|--11-11-11-11--9-9--8-8--9-9-9-9--8-8-8-8--9--| 
D|--9--9--9--9---9-9--9-9--9-9-9-9--9-9-9-9--9--| (8x)
A|--x--x--x--x---x-x--x-x--x-x-x-x--x-x-x-x--x--| 
E|----------------------------------------------| 


Chorus 1: 

e|------------------------------| 
B|------------------------------| 
G|--4---9-------4---9-----------| 
D|--4---9---4---4---9---4-------| 
A|--2---7---4---2---7---4-------| 
E|----------2-----------2-------| 


Intro 2: 

e|-------------------------------| 
B|-------------------------------| 
G|-------------------------------| 
D|--9-9-9-9-9-9-9-9-9------------| 
A|-------------------------------| 
E|--9-9-7-7-7-7-7-7-7------------| 


Verse 2: 

e|----------------------------------------------| 
B|----------------------------------------------| 
G|--11-11-11-11--9-9--8-8--9-9-9-9--8-8-8-8--9--| 
D|--9--9--9--9---9-9--9-9--9-9-9-9--9-9-9-9--9--| (4x)
A|--x--x--x--x---x-x--x-x--x-x-x-x--x-x-x-x--x--| 
E|----------------------------------------------| 


Chorus 2: 

e|------------------------------| 
B|------------------------------| 
G|--4---9-------4---9-----------| 
D|--4---9---4---4---9---4-------| (2x)
A|--2---7---4---2---7---4-------| 
E|----------2-----------2-------| 
 

Chorus 3: 

e|------------------------------| 
B|------------------------------| 
G|--4---9-------4---9-----------| 
D|--4---9---4---4---9---4-------| (2x)
A|--2---7---4---2---7---4-------| 
E|----------2-----------2-------| 

e|------| 
B|--4---| 
G|--4---|  
D|--2---| 
A|------| 
E|------| 
	  

Search Paypal
auto scroll beats size up size down change color hide chords drawings
tab show chords e-chords YouTube Clip e-chords hide all tabs e-chords go to top tab