Blink 182

home > Blink 182

Freak Scene Tab

Blink 182

Difficulty: IntermediateIntermediate

tuner correct add songbook print version text version save to e-mail
chordsukulelecavacokeyboardtabbassdrumsharmonicsflute Guitar Pro
chords

Freak Scene

  		 
Intro :  
| -------------- | 
| -------------- | 
| --7*---------- | 
| --7*--2*--7*-- | 
| --5*--2*--7*-- | 
| ------0*--5*-- | 
 
Verse : x2 
| ------------------------------------------------------------------------------ | 
| ------------------------------------------------------------------------------ | 
| --77777777------------------------------7777777777777777---------------------- | 
| --77777777--22222222--7777777777777777--7777777777777777--22222222--77777777-- | 
| --55555555--22222222--7777777777777777--5555555555555555--22222222--77777777-- | 
| ------------00000000--5555555555555555--------------------00000000--55555555-- | 
 
Then : x2 
| -------- | 
| -------- | 
| --9----- | 
| --9--4-- | 
| --7--4-- | 
| -----2-- | 
 
Chorus : x2 
| -------------------------------------------------------- | 
| -------------------------------------------------------- | 
| --7777777777777777-------------------------------------- | 
| --7777777777777777--2222222222222222-7777777777777777--- | 
| --5555555555555555--2222222222222222-7777777777777777--- | 
| --------------------0000000000000000-5555555555555555--- | 
 
Solo A 
| ---------------------------------------------------------------------- 
| ---------------------------------------------------------------------- 
| ----------------9-8-9/11~--12-12-12--11-11--9--8-8-6-6-7-7-8----9-9-9- 
| ---12--12-12-12------------------------------------------------------- 
| ---------------------------------------------------------------------- 
| ---------------------------------------------------------------------- 
 
| ---------------------------------------------------------------------- 
| ---------------------------------------------------------------------- 
| ---11--10--9--9-9-9-7--5---4h5-6-4h5-6-4h5-6--4-4-5-5p6-4------------- 
| ---------------------------------------------------------------------- 
| ---------------------------------------------------------------------- 
| ---------------------------------------------------------------------- 
 
| ---------------------------------------------------------------------- 
| ---------------------------------------------------------------------- 
| ------------------------9-9--10-10-9-8--7--8-7-5--4-4-5--5--7--------- 
| ---12--12-10-8--10--12------------------------------------------------ 
| ---------------------------------------------------------------------- 
| ---------------------------------------------------------------------- 
 
| ---------------------------------------------------------------------- 
| ---------------------------------------------------------------------- 
| ---4-4-5--5/6-9--13-13-11-10--11-13--11-10\--------------------------- 
| ---------------------------------------------------------------------- 
| ---------------------------------------------------------------------- 
| ---------------------------------------------------------------------- 
 
After solo A :  
| -------------------------- | 
| -------------------------- | 
| --7*----------7*---------- | 
| --7*--2*--7*--7*--2*--7*-- | 
| --5*--2*--7*--5*--2*--7*-- | 
| ------0*--5*------0*--5*-- | 
 
Solo B 
|---------------------------------------------------------------------- 
|---------------------------------------------------------------------- 
|---13--13-13-13--11-10--13--13-13-13-13-11-10--11-11-11-11--10-11-13-- 
|---------------------------------------------------------------------- 
|---------------------------------------------------------------------- 
|---------------------------------------------------------------------- 
 
|---------------------------------------------------------------------- 
|---------------------------------------------------------------------- 
|---13-13\7-7-8-8-10--8--8-8\7--6-6--6-8-7--4-5-6-7-6-5--4--7--5--4-6-7 
|---------------------------------------------------------------------- 
|---------------------------------------------------------------------- 
|---------------------------------------------------------------------- 
 
|---------------------------------------------------------------------- 
|---------------------------------------------------------------------- 
|---13--13-13-13--11-10--13--13-13-13-13-11-10--11-11-11-11--10-11-13-- 
|---------------------------------------------------------------------- 
|---------------------------------------------------------------------- 
|---------------------------------------------------------------------- 
 
|---------------------------------------------------------------------- 
|---------------------------------------------------------------------- 
|---13-13-11-10---13--13-13-13--11-10--11--11-13-13-13-11--10-10-11-10- 
|---------------------------------------------------------------------- 
|---------------------------------------------------------------------- 
|---------------------------------------------------------------------- 
 
|---------------------------------------------------------------------- 
|---------------------------------------------------------------------- 
|---9--9--8-6-7-4-5~--------------------------------------------------- 
|---------------------------------------------------------------------- 
|---------------------------------------------------------------------- 
|---------------------------------------------------------------------- 
 

	  

Full key step upFull key step up
Half key step upHalf key step up
Half key step downHalf key step down
Full key step downFull key step down
Search Paypal
auto scroll beats size up size down change color hide chords drawings
tab show chords e-chords YouTube Clip e-chords hide all tabs e-chords go to top tab