Blink 182

home > Blink 182

Even If She Falls Tab

Blink 182

Difficulty: AdvancedAdvanced

by hebealmeida

tuner correct add songbook print version text version save to e-mail
chordsukulelecavacokeyboardtabbassdrumsharmonicsflute Guitar Pro
chords

Even If She Falls

  		

MAin Riff
 
e|-----------------------------------------------------------------| 
B|-----------------------------------------------------------------| 
G|-----------------------------------------------------------------| 
D|--4-4-4-------0-0-0-0-0-0-0-0-0-0-------0-0-0-2-2-2-0-0-0-2-0-0-0| 
A|--------0-0-0----------------------------------------------------| 
E|----------------------------------3-3-3--------------------------| 


Verse 
e|-----------------------------------------------------------------| 
B|-----------------------------------------------------------------| 
G|-11-11-11----11-11/12\9-9-----9-9/11\7-7------11-11/12--11--9----| 
D|-x--x--x-----x--x-/x-\x-x-----x-x/x-\x-x------x--x-/x---x---x----| 
A|-9--9--9-----9--9-/10\7-7-----7-7/9-\5-5------9--9-/10--9---7----| 
E|-----------------------------------------------------------------| 


Chorus 
e|-2------0-----2-----3--------------------------------------------| 
B|---3------3-----3-----3------------------------------------------| 
G|-----2------2-----2-----2----------------------------------------| 
D|-----------------------------------------------------------------| 
A|-----------------------------------------------------------------| 
E|-----------------------------------------------------------------| 

LAst BriDGe 
e|------------------------------------------------------------------------| 
B|------------------------------------------------------------------------| 
G|-11-11-11---7-7-7----11-11-11-11-11-11-11-11-11---12-12-12--7-7-7--4-4-4| 
D|-x--x--x----x-x-x----x--x--x--x--x--x--x--x--x----x--x--x---x-x-x--x-x-x| 
A|-9--9--9----5-5-5----9--9--9--9--9--9--9--9--9----10-10-10--5-5-5--2-2-2| 
E|------------------------------------------------------------------------| 
 
	  

Search Paypal
auto scroll beats size up size down change color hide chords drawings
tab show chords e-chords YouTube Clip e-chords hide all tabs e-chords go to top tab