Blink 182

home > Blink 182

Easy Target Tab

Blink 182

Difficulty: nolevelnolevel

tuner correct add songbook print version text version save to e-mail
chordsukulelecavacokeyboardtabbassdrummharmonicsflute Guitar Pro
chords

Easy Target

Year: 2003 - Album: Blink 182

  		 
Intro: 
-------------------------------------------------- 
-------------------------------------------------- 
------------------2-2-2-2------------------------- 
-4-4-4-4-4-4-4-4--2-2-2-2--2-2-2-2---------------- 
-4-4-4-4-4-4-4-4--0-0-0-0--2-2-2-2---------------- 
-2-2-2-2-2-2-2-2-----------0-0-0-0---------------- 
 
Verses: 
 
------------------------------------------------ 
------------------------------------------------ 
------------------------------------------------ 
-11-11-11-11-11-11-11-11---9-9-11-11-7-7-7------ 
-11-11-11-11-11 11-11-11---9-9-11-11-7-7-7------ 
--9--9--9--9--9--9--9--9---7-7-9--9--5-5-5------ 
 
 
Chorus: 
 
-------------------------------------------------- 
-------------------------------------------------- 
------------------2-2-2-2------------------------- 
-4-4-4-4-4-4-4-4--2-2-2-2--2-2-2-2---------------- 
-4-4-4-4-4-4-4-4--0-0-0-0--2-2-2-2---------------- 
-2-2-2-2-2-2-2-2-----------0-0-0-0---------------- 
 
Interlude: 
 
-------------------------------------------------- 
-------------------------------------------------- 
-7-7-7-7-7-7-7-7--2-2-2-2------------------------- 
-7-7-7-7-7-7-7-7--2-2-2-2--2-2-2-2---------------- 
-5-5-5-5-5-5-5-5--0-0-0-0--2-2-2-2---------------- 
---------------------------0-0-0-0---------------- 
 
Ending: 
-------------------------------------------- 
-------------------------------------------- 
-------------------------------------------- 
-4-6-7-7--11-11-12-9-9-------------------- 
-4-6-7-7--11-11-12-9-9-------------------- 
-2-4-5-5---9--9-10-7-7-------------------- 
 
 
_______________________________________________________ 
Contribuição: Otávio Gomes de Queiroz Neto([email protected]) 

	  

Search Paypal
auto scroll beats size up size down change color hide chords drawings
tab show chords e-chords YouTube Clip e-chords hide all tabs e-chords go to top tab